Cifras e Tablaturas
Misc Computer Games

Misc Computer Games

Portal 2 - Reconstructing Science

Cifras Cancelar Versão de Impressão

Misc Computer Games - Portal 2 - Reconstructing Science

Tom:

  			 

e|--------------------------------|--------------------------------| 
B|----1---------------1-----------|----1---------------------------| 
G|--------0---1-----------0---3---|--------0---1---3---1---0---1---| 
D|3---------------3---------------|3-------------------------------| 
A|--------------------------------|--------------------------------| 
E|--------------------------------|--------------------------------| 
         
e|1-------------------------------|--------------------------------| 
B|----1---------------1-----------|----1---------------------------| 
G|--------0---1-----------0---3---|--------0---1---3---1---0---1---| 
D|3---------------3---------------|3-------------------------------| 
A|--------------------------------|--------------------------------| 
E|--------------------------------|--------------------------------| 
  
e|1-------8-------4-------6-------|3-------4-------1-------0-------| 
B|--------------------------------|--------------------------------| 
G|--------------------------------|--------------------------------| 
D|--------------------------------|--------------------------------| 
A|--------------------------------|--------------------------------| 
E|--------------------------------|--------------------------------| 
        
e|1-------8-------4-------6-------|9-------3-------6-------0-------| 
B|--------------------------------|--------------------------------| 
G|--------------------------------|--------------------------------| 
D|--------------------------------|--------------------------------| 
A|--------------------------------|--------------------------------| 
E|--------------------------------|--------------------------------| 
         
e|1-------8-------4-------6-------|3-------4-------1-------0-------| 
B|--------------------------------|--------------------------------| 
G|--------------------------------|--------------------------------| 
D|--------------------------------|--------------------------------| 
A|--------------------------------|--------------------------------| 
E|--------------------------------|--------------------------------| 
     
e|1-------8-------4-------6-------|9-------3-------6-------0-------| 
B|--------------------------------|--------------------------------| 
G|--------------------------------|--------------------------------| 
D|--------------------------------|--------------------------------| 
A|--------------------------------|--------------------------------| 
E|--------------------------------|--------------------------------| 
  
e|1-------8-------4-------6-------|3-------4-------1-------0-------| 
B|--------------------------------|--------------------------------| 
G|--------------------------------|--------------------------------| 
D|--------------------------------|--------------------------------| 
A|--------------------------------|--------------------------------| 
E|--------------------------------|--------------------------------| 
       
e|1-------8-------4-------6-------|9-------3-------6-------0-------| 
B|--------------------------------|--------------------------------| 
G|--------------------------------|--------------------------------| 
D|--------------------------------|--------------------------------| 
A|--------------------------------|--------------------------------| 
E|--------------------------------|--------------------------------| 


************************************ 

| /   slide up 
| \   slide down 
| h   hammer-on 
| p   pull-off 
| ~   vibrato 
| +   harmonic 
| x   Mute note 
| b   Bend 
| pb  Pre-bend 
| br  Bend release 
| pbr Pre-bend release 
| brb Bend release bend 

************************************ 
    	
fixar
fixar inscrever-se

enviado porenviado por: LINEKERS
cifra enviadaCorrigida por: sem correções
logo top cifrasComente
ico música do artistaMúsicas deste artista
ico curtiuCurtiu?
ico destaqueDestaque
Petaxxon Comunicação Online

Cifras.com.br - Melhor e mais completo site de cifras e tablaturas do Brasil Mais de 1 milhão de acordes de músicas cadastradas desde 2003
As informações contidas no nosso site são colaborações de seus usuários e podem conter erros, sendo assim, não nos responsabilizamos sobre nenhuma destas.

close
menos
mais
close
Cor dos acordes:

Cor da letra:

close
Alinhar acordes a direita Alinhar acordes a esquerda Alinhar acordes em baixo Alinhar acordes no topo
close
  Mostrar todos os acordes Esconder acordes muito fáceis Esconder acordes fáceis Esconder acordes intermediários
redimensionar
glossário