Cifras e Tablaturas
Misc Computer Games

Misc Computer Games

Rance - Before The Decisive Battle

Cifras Cancelar Versão de Impressão
cifras

Misc Computer Games - Rance - Before The Decisive Battle

fixar na tela  
Exibindo: vídeo-aula ver clipes redimensionar
  
0:00 - 0:12 
    Dm         Am              A#            F         Dm         Am             Gm 
e|--------------8--------------------------------------------------8------12/13--12------10-----------| 
B|--10---8--10-----8------10--8\6---6--5--6------------10---8--10-----10-------------13---------------| 
G|--------------------9----------------------5h7--5---------------------------------------------------| 
D|----------------------------------------------------------------------------------------------------| 
A|----------------------------------------------------------------------------------------------------| 
E|----------------------------------------------------------------------------------------------------| 

0:13 - 0:26 
        Dm      Am         A#          F          Em                                   A        
e|------------8---------------------------------------------12/13--12---------------------------------| 
B|--6/8--10------8------------------8--10---10-10-10\8---8-------------13--13--11--8--10---11--11h10--| 
G|------------------10--9--10---10--------------------------------------------------------------------| 
D|----------------------------------------------------------------------------------------------------| 
A|----------------------------------------------------------------------------------------------------| 
E|----------------------------------------------------------------------------------------------------| 

0:27 - 0:40 
Dm 

0:41 - 0:53 
    Dm         Am              A#            F         Dm         Am             Gm 
e|--------------8--------------------------------------------------8------12/13--12------10-----------| 
B|--10---8--10-----8------10--8\6---6--5--6------------10---8--10-----10-------------13---------------| 
G|--------------------9----------------------5h7--5---------------------------------------------------| 
D|----------------------------------------------------------------------------------------------------| 
A|----------------------------------------------------------------------------------------------------| 
E|----------------------------------------------------------------------------------------------------| 

0:54 - 1:07 
           Dm          Am        A#           F            Em                          A   
e|--10h12--13------13--12--------10------------------------------------------6--8--10--12--13--13p12--| 
B|-------------10-----------13--------13--11--13---10-10-10\8--8--7/8--6--8---------------------------| 
G|----------------------------------------------------------------------------------------------------| 
D|----------------------------------------------------------------------------------------------------| 
A|----------------------------------------------------------------------------------------------------| 
E|----------------------------------------------------------------------------------------------------| 

1:08 - 1:20 
    A#                       Am   Dm   Gm       C            F       A 
e|-------9/10---10--12--13--10---8-8---8--6-5--5/6--5--------5/6---8-5---| 
B|-----------------------------------------------------6--8--------------| 
G|---7-------------------------------------------------------------------| 
D|-----------------------------------------------------------------------| 
A|-----------------------------------------------------------------------| 
E|-----------------------------------------------------------------------| 

1:21 - 1:34 
     Dm         Am                    A#      Am    A                          C         A 
e|---------------------12/13--12------10---10-8---8/9~---9/10--12--13--15--17--18~--18~--17~------| 
B|--------------8--10-------------13--------------------------------------------------------------| 
G|--9/10--9-10------------------------------------------------------------------------------------| 
D|------------------------------------------------------------------------------------------------| 
A|------------------------------------------------------------------------------------------------| 
E|------------------------------------------------------------------------------------------------| 


1:35 - 1:47  
Dm 


back to 0:00 

************************************ 
| h   Hammer-on 
| p   Pull-off 
| /   Slide up 
| \   Slide down 
| ~   Vibrato 
************************************ 
  

cifra enviadasem correções
enviado porenviada por:aleffederico
top 5 | misc computer games
top diversos
Outras músicas do artista letras do(a) Misc Computer Games
Top cifras »Top artistas »
Petaxxon Comunicação Online
Cifras.com.br - Melhor e mais completo site de cifras e tablaturas do Brasil
Mais de 1 milhão de acordes de músicas cadastradas desde 2003
As informações contidas no nosso site são colaborações de seus usuários e podem conter erros, sendo assim, não nos responsabilizamos sobre nenhuma destas.
close
menos
mais
close
Cor dos acordes:

Cor da letra:

 

save
close
close
 
redimensionar