Cifras e Tablaturas
Misc Computer Games

Misc Computer Games

Session - Ace Combat 04

Cifras Cancelar Versão de Impressão
cifras

Misc Computer Games - Session - Ace Combat 04

fixar na tela  
Exibindo: vídeo-aula ver clipes redimensionar

Tom:

  Session 
Ace Combat 04 

Intro 
e|--------------12~-----3--3--3--2--2--| 
B|-8~----8~-------------5-----5-----5--| 
G|-9~----9~-------------4-----5--------| 
D|-9~----10~----9~---------------------| 
A|--------------10~-----------0-----0--| 
E|-0~----0~-----0~------3--------------| 

Enter harmonica 
e|-0-----------------------5~----3----8----3----3---1---1----0----3------------2-------0---2---3---------| 
B|-------4--0--5--0--7--0--4~---------5----1----1------------0----4----4-------4--------------------0~---| 
G|-------------------------------4----0---------2-------2----0---------------------2-----0---2---0--0~---| 
D|-4-----------------------4~----5-----------------------------------------------4---4-------------------| 
A|-3-----2-----4-----6---------------------1----0-------0----2----2----------2---------------------------| 
E|-------------------------------------------------------------------------0-----------0---2---3----0~---| 



************************************ 

| ~ Vibrato 

************************************ 
  

top 5 | misc computer games
top diversos
Outras músicas do artista letras do(a) Misc Computer Games
Top cifras »Top artistas »
Petaxxon Comunicação Online
Cifras.com.br - Melhor e mais completo site de cifras e tablaturas do Brasil
Mais de 1 milhão de acordes de músicas cadastradas desde 2003
As informações contidas no nosso site são colaborações de seus usuários e podem conter erros, sendo assim, não nos responsabilizamos sobre nenhuma destas.
close
menos
mais
close
Cor dos acordes:

Cor da letra:

 

save
close
close
 
redimensionar