Cifras e Tablaturas
Misc Computer Games

Misc Computer Games

Skyrim - Ragnar The Red

Cifras Cancelar Versão de Impressão
cifras

Misc Computer Games - Skyrim - Ragnar The Red

fixar na tela  
Exibindo: vídeo-aula ver clipes redimensionar

Tom:

  
There once was a hero named Ragnar the Red who came riding to Whiterun from ole Rorikstead 
e|-------------------------------------|-------------------------------------| 
B|-5-------4------------------4--------|----------5---------4----------------| 
G|-4----------4------------4-----------|-------6-----6------5----------------| 
D|-2-------------2------4--------------|----6-----------6--------------------| 
A|-------------------2-----------------|-4-----------------------------------| 
E|-------------------------------------|--------------------4----------------| 

And the braggart did swagger and brandish his blade as he told of bold battles and gold he had made 
e|-------------------------------------|-------------------------------------| 
B|-2-----0h2p0---------------0---------|----------4------------------2-------| 
G|-2----------2-----------1-----1------|-------4-----4------------3----------| 
D|-2-------------2-----2-----------2---|----4-----------4------4-------------| 
A|-0-----------------------------------|-2-----------------------------------| 
E|-------------------0-----------------|--------------------2----------------| 

But then he went quiet, did Ragnar the Red when he met the shield maiden Matilda who said... 
e|-------------------------------------|----------------------------2--------| 
B|-----------------------------7-------|----------4--------------------------| 
G|-4-------4----------------7-----7----|-------5--(5)------------3-----------| 
D|-5---5------5--5---------7---------7-|------5-----------------4------------| 
A|-5----x-------------5----------------|-2-----------------------------------| 
E|-3-----------------------------------|--------------------2----------------| 

Oh, you talk and you lie and you drink all our mead! Now I think it's high time that you lie down and bleed! 
e|-------------------------------------|-------------------------------------| 
B|-----------------------------7-------|----------4----------------2---------| 
G|-4-------4----------------7-----7----|-------5-----5---------(3)-3---------| 
D|-5----5-----5------------7---------7-|------5---------5-------4------------| 
A|-5---5---------5----5----------------|-2---------------------x-------------| 
E|-3-----------------------------------|--------------------2----------------| 

And so then came the clashing and slashing of steel as the brave lass Matilda charged in full of zeal! 
e|-------------------------------------|-------------------------4---4-------| 
B|---------5------------------4--------|----------5--------------4---4-------| 
G|------4-----4------------4-----------|-------6-----6-----------5-----------| 
D|-----2---------2--------4------------|------6---------6-------6------------| 
A|-------------------2-----------------|-4-----------------------------------| 
E|-0-----------------------------------|--------------------4----------------| 

And the braggart named Ragnar was boastful no more... When his ugly red head rolled around on the floor! 
e|-------------------------------------|---------------------------0---------| 
B|----------2--/4--5----------5--------|-2--------4------------(0)-0---------| 
G|-------2-----------------x-----------|-------2-----4----------1------------| 
D|----2-----------------6--------------|----2-----------4----2---------------| 
A|-0-----------------4-----------------|-0--------2--------------------------| 
E|-------------------------------------|-------------------0-----------------| 


************************************ 

| x   Dead note 
| (n) Ghost note 
| h   Hammer-on 
| p   Pull-off 
| /   Slide up 
| \   Slide down 

************************************ 
  

top 5 | misc computer games
top diversos
Outras músicas do artista letras do(a) Misc Computer Games
Top cifras »Top artistas »
Petaxxon Comunicação Online
Cifras.com.br - Melhor e mais completo site de cifras e tablaturas do Brasil
Mais de 1 milhão de acordes de músicas cadastradas desde 2003
As informações contidas no nosso site são colaborações de seus usuários e podem conter erros, sendo assim, não nos responsabilizamos sobre nenhuma destas.
close
menos
mais
close
Cor dos acordes:

Cor da letra:

 

save
close
close
 
redimensionar