Cifras e Tablaturas
Misc Computer Games

Misc Computer Games

Skyrim - The Dragonborn Comes

Cifras Cancelar Versão de Impressão
cifras

Misc Computer Games - Skyrim - The Dragonborn Comes

fixar na tela  
Exibindo: vídeo-aula ver clipes redimensionar
  
Intro 
e|-------------------| 
B|----------3--------| 
G|----------4--------| 
D|-------4-------4---| x 4 
A|---2---------------| 
E|-------------------| 

Verse 
e|-----------------------------------------------------------------------| 
B|-----------3------------------0------------3-----------------3---------| 
G|-----------4-------------------------------4-----------------4---------| 
D|-------4--------4---------2------------4--------4--------4--------4----|  
A|---2-----------------0-------------2-----------------2-----------------| 
E|-----------------------------------------------------------------------| 

Chorus 
|Bm   |D   |A   |Em   | 
|Bm   |D   |G   |F#m  |  
|Bm  Em |A  E |  
|Bm  Em |A  E | 
|Bm  Em |A  E | 
|Bm  A  |D  F#m| 

Outro 
e|-------------------| 
B|----------3--------| 
G|----------4--------| 
D|-------4-------4---| x 2 |Bm | 
A|---2---------------| 
E|-------------------| 
  

cifra enviadasem correções
enviado porenviada por:paulantunes
top 5 | misc computer games
top diversos
Outras músicas do artista letras do(a) Misc Computer Games
Top cifras »Top artistas »
Petaxxon Comunicação Online
Cifras.com.br - Melhor e mais completo site de cifras e tablaturas do Brasil
Mais de 1 milhão de acordes de músicas cadastradas desde 2003
As informações contidas no nosso site são colaborações de seus usuários e podem conter erros, sendo assim, não nos responsabilizamos sobre nenhuma destas.
close
menos
mais
close
Cor dos acordes:

Cor da letra:

 

save
close
close
 
redimensionar