Cifras e Tablaturas
Misc Computer Games

Misc Computer Games

Spectrobes - Nessa

Cifras Cancelar Versão de Impressão
cifras

Misc Computer Games - Spectrobes - Nessa

fixar na tela  
Exibindo: vídeo-aula ver clipes redimensionar
  
Part A 
 Cmin                   Db                     Cmin                   Db 
e|-10----6----------------|-11----8----------------|-10----6----------------|-11----8----------------| 
B|------------------------|------------------------|------------------------|------------------------| 
G|----12----7-------------|----13----8-------------|----12----7-------------|----13----8-------------| 
D|------------------------|------------------------|------------------------|------------------------| 
A|------------------------|------------------------|------------------------|------------------------| 
E|------------------------|------------------------|------------------------|------------------------| 

This part can be played using an alternative fingering too: 

e|-10---------------------|-11---------------------| 
B|-------11---------------|-------13---------------| 
G|----12------------------|----13------------------| 
D|----------12------------|----------13------------| 
A|------------------------|------------------------| 
E|------------------------|------------------------| 

Part B 
 Cmin                    Eb          F         Cmin                    Db 
e|-------------------------|-------------------------|-------------------------|-------------------------| 
B|----------8--------8--10-|-11-8-----11-10-8--------|-8-----------------------|-------------------------| 
G|-7--8--10----------------|----------------------10-|-------------------------|-------------------------| 
D|----------------10-------|-------------------------|----10----10-------8-----|-8--10-------------------| 
A|-------------------------|-------------------------|----------------------10-|-------10-8--------------| 
E|-------------------------|-------------------------|-------------------------|-------------------------| 

 Cmin                    Eb          F         Ab                      Db 
e|-------------------------|-------------------------|-8-----------------------|-------------------------| 
B|----------8--------8--10-|-11-8-----11-10----11----|----11----8--------------|-------------------------| 
G|-7--8--10----------------|-------------------------|----------------10----8--|-10----------------------| 
D|----------------10-------|-------------------------|-------------------------|-------------------------| 
A|-------------------------|-------------------------|-------------------------|-------------------------| 
E|-------------------------|-------------------------|-------------------------|-------------------------| 

Part A 

 Cmin                   Db                     Cmin                   Db 
e|-10----6----------------|-11----8----------------|-10----6----------------|-11----8----------------| 
B|------------------------|------------------------|------------------------|------------------------| 
G|----12----7-------------|----13----8-------------|----12----7-------------|----13----8-------------| 
D|------------------------|------------------------|------------------------|------------------------| 
A|------------------------|------------------------|------------------------|------------------------| 
E|------------------------|------------------------|------------------------|------------------------| 

Part B 
 Cmin                    Eb          F         Cmin                    Ab         Db 
e|-------------------------|-------------------------|-------------------------|-------------------------| 
B|----------8--------8--10-|-11-8-----11-10-8--------|-8-----------------------|-------------------------| 
G|-7--8--10----------------|----------------------10-|-------------------------|-------------------------| 
D|----------------10-------|-------------------------|----10----10-------8-----|-8--10-------------------| 
A|-------------------------|-------------------------|----------------------10-|-------10-8--------------| 
E|-------------------------|-------------------------|-------------------------|-------------------------| 

e|-------------------------|-------------------------|-------------------------|-------------------------| 
B|-8--8-----8--8--8-----8--|-8--8-----8--10-10----10-|-8--8-----8--8--8-----8--|-9--9-----9---9--9-----9-| 
G|-8--8-----8--8--8-----8--|-8--8-----8--10-10----10-|-8--8-----8--8--8-----8--|-8--8-----8--10-10----10-| 
D|-------------------------|-------------------------|-------------------------|-------------------------| 
A|-------------------------|-------------------------|-------------------------|-------------------------| 
E|-------------------------|-------------------------|-------------------------|-------------------------| 

 Cmin                    Eb          F         Cmin 
e|-------------------------|-------------------------|-8-----------------------|-------------------------| 
B|----------8--------8--10-|-11-8-----11-10----11----|-------------------------|-------------------------| 
G|-7--8--10----------------|-------------------------|-------------------------|-------------------------| 
D|----------------10-------|-------------------------|-------------------------|-------------------------| 
A|-------------------------|-------------------------|-------------------------|-------------------------| 
E|-------------------------|-------------------------|-------------------------|-------------------------| 

e|-------------------------|-------------------------|-8--8-----8-10-10----10--|-8--8--10-10-11-11-15-15-| 
B|-8--8-----8--8--8-----8--|-8--8-----8--10-10----10-|-8--8-----8--8--8-----8--|-8-(8)-------------------| 
G|-8--8-----8--8--8-----8--|-8--8-----8--10-10----10-|-8--8-----8--8--8-----8--|-8-(8)-------------------| 
D|-------------------------|-------------------------|-------------------------|-------------------------| 
A|-------------------------|-------------------------|-------------------------|-------------------------| 
E|-------------------------|-------------------------|-------------------------|-------------------------| 

Part C 
 Fmin                            Gmin                             
e|---------------------------------|---------------------------------| 
B|-8-8---8---6---6-----4---4---6---|-8-8---8---6---6-----4---4---6---| 
G|-8-8---8---7---7-----5---5---7---|-8-8---8---7---7-----5---5---7---| 
D|---------------------------------|---------------------------------| 
A|---------------------------------|---------------------------------| 
E|---------------------------------|---------------------------------| 

e|---------------------------------|---------------------------------| 
B|-1-------------------------------|-3-------------------------------| 
G|-1-------------------------------|-3-------------------------------| 
D|---------------------------------|---------------------------------| 
A|---------------------------------|---------------------------------| 
E|---------------------------------|---------------------------------| 

 Ab                              Db 
e|---------------------------------|---------------------------------| 
B|-8-8---8---6---6-----4---4---4---|-6-----------------------8---11--| 
G|-8-8---8---7---7-----5---5---5---|-6-----6-------------------------| 
D|---------------------------------|-------8-----6---3---------------| 
A|---------------------------------|-------------8---4---------------| 
E|---------------------------------|---------------------------------| 

e|---------------------------------|---------------------------------| 
B|-4-------------------------------|-6-------------------------------| 
G|-5-------------------------------|-6-------------------------------| 
D|---------------------------------|---------------------------------| 
A|---------------------------------|---------------------------------| 
E|---------------------------------|---------------------------------| 

 Fmin                    Gmin                    Ab                      Bb 
e|-8-----------------------|-------------------------|-------------------------|-------------------------| 
B|----11----8--------------|----8--------------------|----8-----8--------------|-------------8-----------| 
G|----------------10----8--|-10-------7--------------|----------------10-8-----|-10----------------------| 
D|-------------------------|----------------10-8-----|-10----------------------|-------------------------| 
A|-------------------------|-------------------------|-------------------------|-------------------------| 
E|-------------------------|-------------------------|-------------------------|-------------------------| 

e|-------------------------|-------------------------|-------------------------|-------------------------| 
B|-1-----------------------|-3-----------------------|-4-----------------------|-3-----------3-----------| 
G|-1-----------------------|-3-----------------------|-5-----------------------|-3-----------3-----------| 
D|-------------------------|-------------------------|-------------------------|-------------------------| 
A|-------------------------|-------------------------|-------------------------|-------------------------| 
E|-------------------------|-------------------------|-------------------------|-------------------------| 

************************************ 

| (n) Ghost note 

************************************ 
  

cifra enviadasem correções
enviado porenviada por:educastilho
top 5 | misc computer games
top diversos
Outras músicas do artista letras do(a) Misc Computer Games
Top cifras »Top artistas »
Petaxxon Comunicação Online
Cifras.com.br - Melhor e mais completo site de cifras e tablaturas do Brasil
Mais de 1 milhão de acordes de músicas cadastradas desde 2003
As informações contidas no nosso site são colaborações de seus usuários e podem conter erros, sendo assim, não nos responsabilizamos sobre nenhuma destas.
close
menos
mais
close
Cor dos acordes:

Cor da letra:

 

save
close
close
 
redimensionar