Cifras e Tablaturas
Misc Computer Games

Misc Computer Games

Super Castlevania 4 - Chandeliers Stage 6-2

Cifras Cancelar Versão de Impressão
cifras

Misc Computer Games - Super Castlevania 4 - Chandeliers Stage 6-2

fixar na tela  
Exibindo: vídeo-aula ver clipes redimensionar
  
Super Castlevania 4 (SNES) - Chandeliers (Stage 6-2 theme) 

Gtr I (B E A D G B E) - 'Grand Piano' 
Gtr II (E A D G B E) - 'Strings' 
Gtr III (E A D G B E) - 'Electric Grand' 
Gtr IV (B E A D G B E) - 'Organ' 

  Gtr I 
   S   S  S  S  S  S  S  S  S  S  S  S  S  S  S  S 
|--------------------------------------------------| 
|-13--10-------10----------------------------------| 
|--------10-------10-------------------------------| 
|-----------10-------10--7-10--7-----7-------------| 
|---------------------------------8-----8--5-------| 
|---------------------------------------------5----| 
|------------------------------------------------6-| 
| 
| Gtr II 
|  H.                                   Q 
|--------------------------------------------------| 
|--------------------------------------10----------| 
|-10-----------------------------------------------| 
|---------------------------------------7----------| 
|--8-----------------------------------------------| 
|--------------------------------------------------| 
| 
| Gtr III 
|  S   S  S  S  S  S  S  S  S  S  S  S  S  S  S  S 
|-20--17-------17----------------------------------| 
|--------18-------18-------------------------------| 
|-----------17-------17-14-17-14----14-------------| 
|--------------------------------15----15-12-------| 
|--------------------------------------------12----| 
|-----------------------------------------------13-| 


   S  S  S  S  S  S  S  S  S  S  S  S  S  S  S  S 
|-------------------------------------------------| 
|-12--9--------9----------------------------------| 
|--------9--------9-------------------------------| 
|-----------9--------9--6--9--6-----6-------------| 
|--------------------------------7-----7--4-------| 
|--------------------------------------------4----| 
|-----------------------------------------------5-| 
| 
|  H                       H 
|-------------------------------------------------| 
|--9----------------------------------------------| 
|-------------------------------------------------| 
|--6----------------------10----------------------| 
|-------------------------------------------------| 
|--------------------------8----------------------| 
| 
|  S  S  S  S  S  S  S  S  S  S  S  S  S  S  S  S 
|-19-16-------16----------------------------------| 
|-------17-------17-------------------------------| 
|----------16-------16-13-16-13----13-------------| 
|-------------------------------14----14-11-------| 
|-------------------------------------------11----| 
|----------------------------------------------12-| 


   S  S  S  S  S  S  S  S  S  S  S  S  S  S  S  S 
|-------------------------------------------------| 
|-10----------------------------------------------| 
|-----8-------11-----------8----------------------| 
|-------10--7----10--7--------7----10-------------| 
|-----------------------9--------9-----9--6-----6-| 
|--------------------------------------------8----| 
|-------------------------------------------------| 
| 
|  H                       Q           Q 
|-------------------------------------------------| 
|-------------------------------------------------| 
|--8-----------------------------------8----------| 
|-------------------------10----------------------| 
|--6-----------------------------------6----------| 
|--------------------------8----------------------| 
| 
|  S  S  S  S  S  S  S  S  S  S  S  S  S  S  S  S 
|-17----------------------------------------------| 
|----16-------19----------16----------------------| 
|-------17-14----17-14-------14----17-------------| 
|----------------------16-------16----16-13----13-| 
|-------------------------------------------15----| 
|-------------------------------------------------| 


    S S S S E E  E E  E E   E  E E  E   Q  Q 
||------------------------|---------------------| 
||------------------------|---------------------| 
||o-9-9-9-9-9-9--9-9--9-9-|-9--9-9--9---9-------| 
||------------------------|---------------------| 
||o-7-7-7-7-7-7--7-7--7-7-|-7--7-7--7---7-------| 
||------------------------|----------------0----| 
||------------------------|---------------------| 
| 
|   Gtr III 
|   S S S S E E  E E  E E   E  E E  E   Q  E  E 
||------------------------|---------------------| 
||o-----------------------|---------------------| 
||--9-9-9-9-9-7-----------|----------------9----| 
||--------------10-8------|------------------10-| 
||o------------------11-9-|-7-------------------| 
||------------------------|---11-8--6---4-------| 
| 
|   Q       E E  E E  E E   E  E E.   S Q  Q 
||------------------------|---------------------| 
||o-----------------------|---------------------| 
||--9---------------------|---------------------| 
||------------------------|-3--3-3----3-2-------| 
||o-----------------------|---------------------| 
||----------0-0--0-0--0-0-|----------------0----| 


   H        E E  E.    S    H        Q    Q 
|------------------------|--------------------| 
|------------------------|--------------------| 
|------------------------|--------------------| 
|---------------10-------|-13-------14---15---| 
|-11-------12---------12-|--------------------| 
|----------------8-------|-11-------12---13---| 
|--9-------10---------10-|--------------------| 
| 
|  E E E E  E E  E  E       E E E E  E E  E E 
|------------------------|--------------------| 
|------------------------|--------------------| 
|------------------------|--------------------| 
|------------------------|--------------------| 
|------------------------|--------------------| 
|--5-5-5-5--5-5--5--5----|--4-5-5-5--5-5--5-5-| 
| 
| Gtr II 
|  H        E E  E.    S    H        Q    Q 
|------------------------|--------------------| 
|------------------------|--------------------| 
|----------------5-------|--8--------9---10---| 
|--6--------7----------7-|--------------------| 
|------------------------|--------------------| 
|------------------------|--------------------| 


   E  E  E  E  E  E  E  E    E  E  E  E  E  E  S  S  S  S 
|-------------------------|-------------------12-10--------| 
|-------------------------|-------------------------13-12--| 
|-------------------------|--------------------------------| 
|-13-10-10-10-10----------|-------------10-13--------------| 
|----------------12-12-12-|-12----11-12--------------------| 
|-------------------------|----13--------------------------| 
|-------------------------|--------------------------------| 
| 
|  E  E  E  E  E  E  E  E    E  E  E  E  E  E  E     E 
|-------------------------|--------------------------------| 
|-------------------------|--------------------------------| 
|-------------------------|--------------------------------| 
|-------------------------|--------------------------------| 
|-------------------------|--------------3--3--3-----3-----| 
|--0--1--1--1--1--1--1--1-|--5--5--5--5--------------------| 
| 
|  Q     Q     Q     Q       Q     Q     E  E  S  S  S  S 
|-------------------------|--------------------------------| 
|-------------------10----|-------13-----------------------| 
|-------10----------------|-----------------8--------------| 
|--------------------7----|-------10----------10--9--7-----| 
|--------8----------------|----------------------------11--| 
|-------------------------|--------------------------------| 


  H       E E  E.   S   H        Q    Q 
|---------------------|---------------5---| 
|---------------------|-------------------| 
|---------------------|-8-------10--------| 
|-6-------7---10----7-|-------------------| 
|--------------7------|-6--------7--------| 
|-7-------8---------8-|---------------5---| 
|---------------------|-------------------| 
| 
| E E E E E E  E  E     E E E E  E E  E E 
|---------------------|-------------------| 
|---------------------|-------------------| 
|---------------------|-------------------| 
|---------------------|-------------------| 
|---------------------|-------------------| 
|-4-5-5-5-5-5--5--5---|-4-5-5-5--5-5--5-5-| 
| 
| H       H             H        Q    Q 
|---------------------|-------------------| 
|---------------------|-------------------| 
|---------------------|-------------------| 
|---------------------|-6--------7---10---| 
|-7-------8-----------|-------------------| 
|---------------------|-------------------| 


   E  E  E  E  E  E  E  E    E  E  E  E  E  E  E  E 
|-------------------------|--------------------------| 
|-------------------------|--------------------------| 
|-13----------------------|--------------------------| 
|----14-14-14-14----------|--------------------------| 
|----------------14-14-14-|-14-11-11-----------------| 
|-------------------------|----------13-13-12-12-10--| 
|-------------------------|--------------------------| 
| 
|  E  E  E  E  E  E  E  E    E  E  E  E  E  E  E  E 
|-------------------------|--------------------------| 
|-------------------------|--------------------------| 
|-------------------------|--------------------------| 
|-------------------------|--------------------------| 
|--6----------------------|--------------2--2--2--2--| 
|-----0--0--0--0--0--0--0-|--4--4--4--4--------------| 
| 
|  E  E  E  E  E  E  E  E    E  E  E  E  E  E  E  E 
|-12-10----10-------------|--------------------------| 
|-------13----13-12-10----|--------------------------| 
|----------------------13-|--------------------------| 
|-------------------------|-14-12-10----12-10--------| 
|-------------------------|----------14-------14-11--| 
|-------------------------|--------------------------| 


   E  S S S   S S  S  E E  E   E      E S S S  S S S E E  E  E 
|----------------------------------|-----------------------------| 
|----------------------------------|-----------------------------| 
|----------------------------------|-----------------------------| 
|----------------------------------|-----------------------------| 
|---------7-------10-10-9----------|--------5------8-8-7---------| 
|--9----9-------9---------10-------|--7---7------7--------8--6---| 
|----10------10---------------10---|----8------8-----------------| 
| 
|  E  E   E.       S  E E  E.    S    E E   E.     S E E  E.   S 
|----------------------------------|-----------------------------| 
|----------------------------------|-----------------------------| 
|----------------------------------|-----------------------------| 
|----------------------------------|-----------------------------| 
|-10-10-----------10--9-9--------9-|--8-8----------8-7-7-------7-| 
|----------------------------------|-----------------------------| 
| 
|  H                  Q    Q          H              Q    Q 
|----------------------------------|-----------------------------| 
|----------------------------------|-----------------------------| 
|-14-----------------11------------|-12--------------9-----------| 
|-11-----------------10---12-------|--9--------------8---10------| 
|----------------------------------|-----------------------------| 
|----------------------------------|-----------------------------| 


   E S S S  S S S E E  E  E     Q    S  S E    Q    S   S  S  S 
|-----------------------------|------------------------------------| 
|-----------------------------|------------------------------------| 
|-----------------------------|------------------------------------| 
|-----------------------------|-------------------------------7----| 
|--------5------6-6-5--8------|-7----5--7-5----4--------4--7-------| 
|--5---5------5-----------6---|---------------------5--------------| 
|----6------6-----------------|------------------------------------| 
| 
|  E E   E.     S E E  E.   S   E E  E.     S  E E  E.        S 
|-----------------------------|------------------------------------| 
|-----------------------------|------------------------------------| 
|-----------------------------|------------------------------------| 
|-----------------------------|-------------6--7-7------------7----| 
|--6-6----------6-5-5-------5-|-7-7--------------------------------| 
|-----------------------------|------------------------------------| 
| 
|  H              Q    Q        Q    Q         Q    S   S  S  S 
|-----------------------------|------------------------------13----| 
|-----------------------------|------------------------10-13-------| 
|-10--------------7---10------|-9---11--------14---10--------------| 
|--7--------------8-----------|-9---12--------14-------------------| 
|-----------------------------|------------------------------------| 
|-----------------------------|------------------------------------| 


  Gtr IV 
   S  S  S  S  S  S  S  S   T   T  S  S  S  S  S  S  S 
|-15----------15-------17--15--17-15-14-15----14-------| 
|----17-14-17----14-17---------------------17----15----| 
|---------------------------------------------------14-| 
|------------------------------------------------------| 
|------------------------------------------------------| 
|------------------------------------------------------| 
|------------------------------------------------------| 
| 
|  E     E     E     E      E         E     E     E 
|------------------------------------------------------| 
|------------------------------------------------------| 
|------------------------------------------------------| 
|------------------------------------------------------| 
|--7-----7-----------7------6---------5-----------5----| 
|------------------------------------------------------| 
| 
|  H                        H 
|------------------------------------------------------| 
|-10----------------------(10)-------------------------| 
|------------------------------------------------------| 
|-11-----------------------10--------------------------| 
|------------------------------------------------------| 
|------------------------------------------------------| 


   S  S  S  S  S  S  S  S  T   T  S  S  S  S  S  S  S 
|-13----------13-------15-13--15-13-12-13----12-------| 
|----15-12-15----12-15--------------------15----13----| 
|--------------------------------------------------12-| 
|-----------------------------------------------------| 
|-----------------------------------------------------| 
|-----------------------------------------------------| 
|-----------------------------------------------------| 
| 
|  E     E     E     E     E         E     E     E 
|-----------------------------------------------------| 
|-----------------------------------------------------| 
|-----------------------------------------------------| 
|-----------------------------------------------------| 
|--8-----8-----------8-----7---------7-----------7----| 
|-----------------------------------------------------| 
| 
|  H                       H 
|-----------------------------------------------------| 
|--8----------------------(8)-------------------------| 
|-----------------------------------------------------| 
|--9-----------------------7--------------------------| 
|-----------------------------------------------------| 
|-----------------------------------------------------| 


   S  S  S  S  S  S  S  S  S   S  S  S  S  S  S  S 
|----17-------17----17-20-18-----------------------| 
|-18----16-18----18-----------18----18----------18-| 
|--------------------------------19----19----19----| 
|-----------------------------------------20-------| 
|--------------------------------------------------| 
|--------------------------------------------------| 
|--------------------------------------------------| 
| 
|  E     E     E     E     E      E     E     E 
|--------------------------------------------------| 
|--------------------------------------------------| 
|--------------------------------------------------| 
|--------------------------------------------------| 
|--6-----6-----------6-----5------5-----------5----| 
|--------------------------------------------------| 
| 
|  H                       H 
|--------------------------------------------------| 
|--8----------------------(8)----------------------| 
|--------------------------------------------------| 
|--7-----------------------6-----------------------| 
|--------------------------------------------------| 
|--------------------------------------------------| 


   S  S  S  S  S  S  S  T  T  Q    E  E 
|-16-17-16-17-16-17-16-14-16-17--------------| 
|--------------------------------------------| 
|--------------------------------------------| 
|--------------------------------------------| 
|---------------------------------12--0------| 
|--------------------------------------------| 
|--------------------------------------------| 
| 
|  E     E     E     E        E E  E.   S 
|--------------------------------------------| 
|--------------------------------------------| 
|--------------------------------------------| 
|--------------------------------------------| 
|--7-----7-----5-----5--------4-4--7---------| 
|---------------------------------------0----| 
| 
|  Q           Q              Q    E  E 
|--------------------------------------------| 
|--9------------------------------10---------| 
|--------------9-----------------------------| 
|--6-------------------------11-------7------| 
|--------------7-----------------------------| 
|-----------------------------9--------------| 


  Gtr I 
  E E E E E E E E    E  E  E    E     E    E     E    E 
|-----------------|----------------------------------------| 
|-----------------|----------------------------------------| 
|-----------------|----------------------------------------| 
|-----------------|----------------------------------------| 
|-----------------|----------------------------------------| 
|-5-5-5-5-5-5-5-5-|--5--5--5----5-----5----5-----5----5----| 
|-----------------|----------------------------------------| 
| 
| Gtr II 
|                          |---3---|  |---3---|  |---3---| 
| W                 +Q     E  E    E  E  E    E  E  E    E 
|-----------------|-------17-17---17-16-16---16-20-20---20-| 
|-----------------|----------------------------------------| 
|-----------------|----------------------------------------| 
|-7---------------|-(7)------------------------------------| 
|-----------------|----------------------------------------| 
|-5---------------|-(5)------------------------------------| 
| 
| Gtr III 
| H       Q   Q      Q     Q          Q          Q 
|-----------------|----------------------------------------| 
|-----------------|----------------------------------------| 
|-------------5---|-------14---------13---------17---------| 
|-7-------6-------|--7-------------------------------------| 
|-----------------|----------------------------------------| 
|-----------------|--7----11---------12---------17---------| 


   E    E     E    E     E    E     E    E       E    E     E    E     E    E     E    E 
|---------------------------------------------|-----------------------------------------------| 
|---------------------------------------------|-----------------------------------------------| 
|---------------------------------------------|-----------------------------------------------| 
|---------------------------------------------|-----------------------------------------------| 
|---------------------------------------------|-----------------------------------------------| 
|--5----5-----5----5-----5----5-----5----5----|--5----5-----5----5-----5----5-----5----5------| 
|---------------------------------------------|-----------------------------------------------| 
| 
|  |---3---|  |---3---|  |---3---|  |---3---|    |---3---|  |---3---|  |---3---|  |---3---| 
|  E  E    E  E  E    E  E  E    E  E  E    E    E  E    E  E  E    E  E  E    E  E  E    E 
|-19-19---19-----------------------17-17---17-|-16-16---16------------------------------------| 
|------------16-16---16-17-17---17------------|------------12-12---12-13-13---13-16-16---16---| 
|---------------------------------------------|-----------------------------------------------| 
|---------------------------------------------|-----------------------------------------------| 
|---------------------------------------------|-----------------------------------------------| 
|---------------------------------------------|-----------------------------------------------| 
| 
|  Q          Q          Q          Q            Q          Q          Q          Q 
|---------------------------------------------|-----------------------------------------------| 
|---------------------------------------------|-----------------------------------------------| 
|-16----------8----------9---------14---------|-13--------------------------------8-----------| 
|---------------------------------------------|-------------9---------10----------------------| 
|---------------------------------------------|-------------8----------7----------6-----------| 
|-16----------7----------8---------11---------|-12--------------------------------------------| 


   E    E     E     E     E    E     E      E            E    E     E    E     E      E          E         E 
|-------------------------------------------------|----------------------------------------------------------| 
|-------------------------------------------------|----------------------------------------------------------| 
|-------------------------------------------------|----------------------------------------------------------| 
|-------------------------------------------------|----------------------------------------------------------| 
|-------------------------------------------------|----------------------------------------------------------| 
|--5----5-----5-----5-----5----5-----5------5-----|--5----5-----5----5-----5------5----------5---------5-----| 
|-------------------------------------------------|----------------------------------------------------------| 
| 
|  |---3---|  |---3----|  |---3---|  |----3-----|        |---3---|  |---3---|  |----3-----|      |------3--| 
|  E  E    E  E   E    E  E  E    E  E   E      E        E  E    E  E  E    E  E   E      E      E      E  E 
|------------17--17---17-16-16---16-19--19-----19-|-17-17---17-----------------------------------------------| 
|-17-17---17--------------------------------------|------------13-13---13-16--16-----16-----17-----17-----17-| 
|-------------------------------------------------|----------------------------------------------------------| 
|-------------------------------------------------|----------------------------------------------------------| 
|-------------------------------------------------|----------------------------------------------------------| 
|-------------------------------------------------|----------------------------------------------------------| 
| 
|  Q          Q           Q  E      S      S     Q          Q          E     +S      S   S  S      S      S 
|---------------------------------------------|--------------------------------------------------------------| 
|---------------------------------------------|-10-----------------------------------------------------------| 
|----------------------------7-----(7)----(7)-|-------------5----------8-----(8)----(8)--9-(9)----(9)----(9)-| 
|--5---------10----------10-------------------|--7----------7---------(7)----(7)-----6---5--4------3------2--| 
|--7---------(7)--------------------7------9--|--------------------------------------------------------------| 
|-------------------------8--8)---------------|--------------------------------------------------------------| 


   E    E     E     E     E    E     E      E        E    E     E       E           E      E        E      E 
|-------------------------------------------------|----------------------------------------------------------| 
|-------------------------------------------------|----------------------------------------------------------| 
|-------------------------------------------------|----------------------------------------------------------| 
|-------------------------------------------------|----------------------------------------------------------| 
|-------------------------------------------------|---------------------------------5------5--------6------6-| 
|--5----5-----5-----5-----5----5-----5------5-----|--5----5-----8-------8------------------------------------| 
|-------------------------------------------------|----------------------------------------------------------| 
| 
|  |---3---|  |---3----|  |---3---|  |----3-----|    |---3---|  |-----3-----|       |----3-----|   |----3-| 
|  E  E    E  E   E    E  E  E    E  E   E      E    E  E    E  E   E       E       E  E       E   E  E   E 
|-13-13---13-17--17---17-15-15---15-13--13-----13-|------------20--20------20------22-22------22--23-23---23-| 
|-------------------------------------------------|-20-20---20-----------------------------------------------| 
|-------------------------------------------------|----------------------------------------------------------| 
|-------------------------------------------------|----------------------------------------------------------| 
|-------------------------------------------------|----------------------------------------------------------| 
|-------------------------------------------------|----------------------------------------------------------| 
| 
|  Q          Q           Q          E      S      S     Q E        S   E      S       S   E      S       S 
|-------------5-----------3---------------------------|----------------10----(10)----(10)-11----(11)----(11)-| 
|--6---------------------------------6-----(6)----(6)-|-10-13-----(13)----(13)-------------------------------| 
|-----------------------------------------------------|------------------------------------------------------| 
|--------------------------------------------------3--|--7-(7)------6-------5---4----------------------------| 
|--6---------(6)----------3---------(3)-----6---------|------------------------8-------7---6------7-------8--| 
|-----------------------------------------------------|------------------------------------------------------| 


   Q   Q             H                 Q   Q             H 
|-----------------------------------|-----------------------------------| 
|-----------------------------------|-----------------------------------| 
|-----------------------------------|-----------------------------------| 
|-----------------------------------|-----------------------------------| 
|--7--------------------------------|--6--------------------------------| 
|-----------------------------------|------5----------------------------| 
|------8-------------5--------------|--------------------4--------------| 
| 
|  Q   S  S  S    S  Q       Q         Q   S  S  S    S  Q       Q 
|-----18-15---------15------18------|-----18-15---------15------18------| 
|-17--------17----------------------|-16--------16----------------------| 
|----------------17-----------------|----------------15-----------------| 
|-----------------------------------|-----------------------------------| 
|-----------------------------------|-----------------------------------| 
|-----------------------------------|-----------------------------------| 
| 
|      |---3---|     |-3--|  |-3--|        |---3---|     |-3--|  |-3--| 
|  Q   Q       E     E E  E  E E  E    Q   Q       E     E E  E  E E  E 
|-----------------------------------|-----------------------------------| 
|------8-----------------------8-11-|------8-----------------------8-11-| 
|--9-------------------------9------|--8-------------------------8------| 
|----------------------8-11---------|----------------------8-11---------| 
|--7-----------7----10--------------|--6-----------6----10--------------| 
|-----------------------------------|-----------------------------------| 


   Q   Q             H                E E  E E  E E  E E 
|----------------------------------|---------------------| 
|----------------------------------|---------------------| 
|----------------------------------|---------------------| 
|----------------------------------|----5----5----5----5-| 
|--5-------------------------------|---------------------| 
|----------------------------------|------------3----3---| 
|------8-------------3-------------|--2----2-------------| 
| 
|  Q   S  S  S    S  Q      Q         Q    Q    Q    Q 
|-----18-15---------15-----18------|-----------18---21---| 
|-15--------15---------------------|------20-------------| 
|----------------15----------------|-18------------------| 
|----------------------------------|---------------------| 
|----------------------------------|---------------------| 
|----------------------------------|---------------------| 
| 
|      |---3---|     |-3-|  |-3--| 
|  Q   Q       E     E E E  E E  E    Q    Q    E E  E E 
|----------------------------------|---------------------| 
|------8----------------------8-11-|---------------------| 
|--7------------------------7------|------------3-6--3---| 
|--------------------5-7-8---------|-------5-----------5-| 
|--5-----------5-------------------|--4------------------| 
|----------------------------------|---------------------| 


   H        H             H        Q     Q 
|----------------------|----------------------| 
|----------------------|----------------------| 
|----------------------|----------------------| 
|----------------------|----------------------| 
|----------------------|-----------------4----| 
|--2--------3----------|--5--------6----------| 
|----------------------|----------------------| 
| 
|  Q.    E  E  E  E  E    Q.    E  E  E  E  E 
|-22-------21----21----|-22-------21-18-20-21-| 
|-------22----20----20-|-------22-------------| 
|----------------------|----------------------| 
|----------------------|----------------------| 
|----------------------|----------------------| 
|----------------------|----------------------| 
| 
|  H        H             H        Q     Q 
|----------------------|----------------------| 
|----------------------|----------------------| 
|--5--------6----------|--7--------8----12----| 
|--7--------8----------|-10-------11----------| 
|----------------------|----------------13----| 
|----------------------|----------------------| 


   W                 Q        Q        Q        Q 
|-----------------|-------------------------------------| 
|-----------------|----------------------------10-------| 
|-----------------|-----------8-------11----------------| 
|-----------------|-10----------------------------------| 
|-----------------|-------------------------------------| 
|-----------------|-------------------------------------| 
|--3--------------|-------------------------------------| 
| 
|                    |--3--|  |--3--|  |--3--|  |--3--| 
|  Q   Q   Q   Q     E  E  E  E  E  E  E  E  E  E  E  E 
|-22--23--22--21--|-20-20-20-17-17-17-------------------| 
|-----------------|-------------------19-19-19-16-16-16-| 
|-----------------|-------------------------------------| 
|-----------------|-------------------------------------| 
|-----------------|-------------------------------------| 
|-----------------|-------------------------------------| 
| 
|  Q   Q   H         Q        Q        Q        Q 
|-----------------|-------------------------------------| 
|-----------------|-------------------------------------| 
|-11--------------|-------------------------------------| 
|-10--------------|-----------------------------7-------| 
|-----------------|-----------6--------9----------------| 
|-----------------|--8----------------------------------| 


   Q.    E   E   E   E   E     Q.    E   E   E   E   E 
|--9-------------9--10--11--|-12------------12--13--14--| 
|-----------11--------------|-------13--16--------------| 
|--------9------------------|---------------------------| 
|---------------------------|---------------------------| 
|--7----(7)-(7)-(7)-(7)-(7)-|--4----(4)-(4)-(4)-(4)-(4)-| 
|---------------------------|---------------------------| 
|---------------------------|---------------------------| 
| 
|  Q.    E   E   E   E   E     Q.    E   E   E   E   E 
|----------------9--10--11--|--------9--11--12--13--14--| 
|--8--------11--------------|--8------------------------| 
|--------9-------6---7---8--|--------6---8---9--10--11--| 
|--8---------8--------------|--7------------------------| 
|--------7------------------|---------------------------| 
|---------------------------|---------------------------| 
| 
|  W                           W 
|---------------------------|---------------------------| 
|---------------------------|---------------------------| 
|---------------------------|--9------------------------| 
|-11------------------------|---------------------------| 
|---------------------------|---------------------------| 
|---------------------------|---------------------------| 


   H       E  E   E   E    H     Q    E    S    S 
|-15------16-----13--16--|---------------------11----|| 
|------------15----------|-----------14--(14)--------|| 
|------------------------|--------------------------o|| 
|--8-------9-(9)---------|-------9---10---12--(12)---|| 
|----------------11-(11)-|--------------------------o|| 
|------------------------|-7----(7)------------------|| 
|------------------------|---------------------------|| 
| 
|  Q.   E  E  E   E   E    H     Q    E.   S 
|------------------------|---------------------------|| 
|---------------------9--|-8-----8------------------o|| 
|--6----9-10--7--10------|------------6----8---------|| 
|------------------------|---------------------------|| 
|------------------------|--------------------------o|| 
|------------------------|---------------------------|| 
| 
|  H       H               H     H 
|------------------------|---------------------------|| 
|------------------------|--------------------------o|| 
|------------------------|---------------------------|| 
|------------------------|------10-------------------|| 
|--7-------8-------------|-8------------------------o|| 
|------------------------|---------------------------|| 



************************************ 

| (n)  Ghost note 

************************************ 
  

cifra enviadasem correções
enviado porenviada por:tarikike
top 5 | misc computer games
top diversos
Outras músicas do artista letras do(a) Misc Computer Games
Top cifras »Top artistas »
Petaxxon Comunicação Online
Cifras.com.br - Melhor e mais completo site de cifras e tablaturas do Brasil
Mais de 1 milhão de acordes de músicas cadastradas desde 2003
As informações contidas no nosso site são colaborações de seus usuários e podem conter erros, sendo assim, não nos responsabilizamos sobre nenhuma destas.
close
menos
mais
close
Cor dos acordes:

Cor da letra:

 

save
close
close
 
redimensionar