Cifras e Tablaturas
Misc Praise Songs

Misc Praise Songs

I Need Thee Every Hour

Cifras Cancelar Versão de Impressão
cifras

Misc Praise Songs - I Need Thee Every Hour

fixar na tela  
Exibindo: vídeo-aula ver clipes redimensionar
  
 (  +    1        2  +  3  +   1 2  3    1 2  +  3  +  )  

E|-----|-------2-----0-------|---------|------0--------| 
B|--3--|-----3----------3--2-|-3----3--|-3-------3--0--| 
G|-----|---2-----------------|-2----2--|-0-------------| 
D|-----|-0-------------------|-0-------|---------------| 
A|-----|---------------------|---------|---------------| 
E|-----|---------------------|---------|-3-------------| 

E|----------|-0----2--0----|-2------|---------------| 
B|----------|-2------------|-3----3-|-2----3--2--0--| 
G|--2----2--|-2----------2-|-2------|-2-------1-----| 
D|--0----0--|--------------|-0------|---------------| 
A|----------|-0------------|--------|---------------| 
E|----------|--------------|--------|-0-------0-----| 

E|-------2--|-2-------3--2-|-2--0---|-0-------2--0--| 
B|----------|-3----3-------|-3--2---|-2----3--------| 
G|--2-------|-2------------|-2--2---|-0-------------| 
D|----------|-0------------|--------|---------------| 
A|--0-------|--------------|-0--0---|-0-------------| 
E|----------|--------------|--------|---------------| 

E|--0-------|------0-------|-------0--|-2-------0--|----| 
B|--2--3--3-|-3-------3--0-|----3--3--|-3----3--2--|-3--| 
G|--0--2----|--------------|-2--2-----|-2----------|-2--| 
D|--0--0----|--------------|-0--------|-0----------|-0--| 
A|----------|--------------|----------|---------0--|----| 
E|--------2-|-3------------|----2--3--|------------|----| 

E|-----|-------2--------0-------|----------------| 
B|--3--|-----3-------3-----3--2-|-3-----3-----3--| 
G|-----|---2------2-------------|----2-----2-----| 
D|-----|-0----------------------|-0-----------0--| 
A|-----|------------------------|----------------| 
E|-----|------------------------|----------------| 

E|------------0-------|------------|-0--------2--0-----| 
B|--3------------3--0-|------------|-2-----2-----------| 
G|---------0----------|-2-------2--|----2-----------2--| 
D|------0-------------|-0----0-----|-------------------| 
A|--------------------|------------|-0-----------------| 
E|--3-----------------|------------|-------------------| 

E|--2--------------|----------------| 
B|--------3-----3--|-2-----3--2--0--| 
G|-----2-----2-----|----2-----1-----| 
D|--0--------------|----------------| 
A|-----------------|----------------| 
E|-----------------|-0--------0-----| 

E|--2--|-2-----------3--2--|-2--0--|--0-----------2--0--| 
B|-----|-3--------3--------|-3--2--|--2--------3--------| 
G|-----|-2-----2-----------|-2--2--|--0-----0-----------| 
D|-----|-0--0--------------|-------|-----2--------------| 
A|-----|-------------------|-0--0--|--0-----------------| 
E|-----|-------------------|-------|--------------------| 

E|--0-------|----------0-------|-------0--|-2--------0--| 
B|--2--3--3-|-3-----------3--0-|----3--3--|-3-----3--2--| 
G|--0--2----|-------0----------|-2--2-----|-2--2--------| 
D|--0--0----|----0-------------|-0--------|-0-----------| 
A|----------|------------------|----------|----------0--| 
E|--------2-|-3----------------|----2--3--|-------------| 

E|-------------------|----------0--------|--------0--| 
B|--3-----------3----|-3-----------3--0--|-----3--3--| 
G|--------2----------|-------0-----------|--2--2-----| 
D|--0--0-----0-----0-|----0--------------|--0--------| 
A|-------------------|-------------------|-----------| 
E|-------------------|-3-----------------|-----2--3--| 

E|--2--------0--|-----| 
B|--3-----3--2--|--3--| 
G|--2--2--------|--2--| 
D|--0-----------|--0--| 
A|-----------0--|-----| 
E|--------------|-----| 
  

top 5 | misc praise songs
top
Outras músicas do artista letras do(a) Misc Praise Songs
Top cifras »Top artistas »
Petaxxon Comunicação Online
Cifras.com.br - Melhor e mais completo site de cifras e tablaturas do Brasil
Mais de 1 milhão de acordes de músicas cadastradas desde 2003
As informações contidas no nosso site são colaborações de seus usuários e podem conter erros, sendo assim, não nos responsabilizamos sobre nenhuma destas.
close
menos
mais
close
Cor dos acordes:

Cor da letra:

 

save
close
close
 
redimensionar