Cifras e Tablaturas
Misc Praise Songs

Misc Praise Songs

Ummeti Kad Laha Fecrun

Cifras Cancelar Versão de Impressão
cifras

Misc Praise Songs - Ummeti Kad Laha Fecrun

fixar na tela  
Exibindo: vídeo-aula ver clipes redimensionar
  
Chorus 

   C#m                A#            C#m                      A#            C#m 
e|-----------------|-------------------|------------------|---------------------| 
B|-----------------|-------------------|------------------|---------------------| 
G|-5-0-0-5-7-5-7-8-|--7-5-3-5-7-8-7-5--|--5-0-0-5-7-5-7-8-|--7-5-3-5-7-8-7-5----| 
D|-----------------|-------------------|------------------|---------------------| 
A|-----------------|-------------------|------------------|---------------------| 
E|-----------------|-------------------|------------------|---------------------| x2 

Verse 

   C#m              A#                    C#m                             
e|-----8-6------8-6----|-----6-8----------------------------------------------| 
B|-8-8------8-8----\9--|--6-6-----9-8-8-6-8-----------------------------------| 
G|---------------------|------------------------------------------------------| 
D|---------------------|------------------------------------------------------| 
A|---------------------|------------------------------------------------------| 
E|---------------------|------------------------------------------------------| x4 
   
Bridge 

 C#m              A#              C#m                
e|-8-6--------------|---------------------------------------------------------| 
B|-----9-8-6----6---|-----6---------------------------------------------------| 
G|------------8-----|-7-7---8-7-8-7-5~----------------------------------------| 
D|------------------|---------------------------------------------------------| 
A|------------------|---------------------------------------------------------| 
E|------------------|---------------------------------------------------------|x1 

Chorus 

   C#m                A#            C#m                      A#            C#m 
e|-----------------|-------------------|------------------|---------------------| 
B|-----------------|-------------------|------------------|---------------------| 
G|-5-0-0-5-7-5-7-8-|--7-5-3-5-7-8-7-5--|--5-0-0-5-7-5-7-8-|--7-5-3-5-7-8-7-5----| 
D|-----------------|-------------------|------------------|---------------------| 
A|-----------------|-------------------|------------------|---------------------| 
E|-----------------|-------------------|------------------|---------------------| x2 

Verse 

   C#m              A#                    C#m                             
e|-----8-6------8-6----|-----6-8----------------------------------------------| 
B|-8-8------8-8----\9--|--6-6-----9-8-8-6-8-----------------------------------| 
G|---------------------|------------------------------------------------------| 
D|---------------------|------------------------------------------------------| 
A|---------------------|------------------------------------------------------| 
E|---------------------|------------------------------------------------------| x4 
   
Bridge 

 C#m              A#              C#m                
e|-8-6--------------|---------------------------------------------------------| 
B|-----9-8-6----6---|-----6---------------------------------------------------| 
G|------------8-----|-7-7---8-7-8-7-5~----------------------------------------| 
D|------------------|---------------------------------------------------------| 
A|------------------|---------------------------------------------------------| 
E|------------------|---------------------------------------------------------|x1 

Chorus 

   C#m                A#            C#m                      A#            C#m 
e|-----------------|-------------------|------------------|---------------------| 
B|-----------------|-------------------|------------------|---------------------| 
G|-5-0-0-5-7-5-7-8-|--7-5-3-5-7-8-7-5--|--5-0-0-5-7-5-7-8-|--7-5-3-5-7-8-7-5----| 
D|-----------------|-------------------|------------------|---------------------| 
A|-----------------|-------------------|------------------|---------------------| 
E|-----------------|-------------------|------------------|---------------------| x2 

Verse 

   C#m              A#                    C#m                             
e|-----8-6------8-6----|-----6-8----------------------------------------------| 
B|-8-8------8-8----\9--|--6-6-----9-8-8-6-8-----------------------------------| 
G|---------------------|------------------------------------------------------| 
D|---------------------|------------------------------------------------------| 
A|---------------------|------------------------------------------------------| 
E|---------------------|------------------------------------------------------| x4 
   
Bridge 

 C#m              A#              C#m                
e|-8-6--------------|---------------------------------------------------------| 
B|-----9-8-6----6---|-----6---------------------------------------------------| 
G|------------8-----|-7-7---8-7-8-7-5~----------------------------------------| 
D|------------------|---------------------------------------------------------| 
A|------------------|---------------------------------------------------------| 
E|------------------|---------------------------------------------------------|x1 


Chorus 

   C#m                A#            C#m                      A#            C#m 
e|-----------------|-------------------|------------------|---------------------| 
B|-----------------|-------------------|------------------|---------------------| 
G|-5-0-0-5-7-5-7-8-|--7-5-3-5-7-8-7-5--|--5-0-0-5-7-5-7-8-|--7-5-3-5-7-8-7-5----| 
D|-----------------|-------------------|------------------|---------------------| 
A|-----------------|-------------------|------------------|---------------------| 
E|-----------------|-------------------|------------------|---------------------| x2 

Verse 

   C#m              A#                    C#m                             
e|-----8-6------8-6----|-----6-8----------------------------------------------| 
B|-8-8------8-8----\9--|--6-6-----9-8-8-6-8-----------------------------------| 
G|---------------------|------------------------------------------------------| 
D|---------------------|------------------------------------------------------| 
A|---------------------|------------------------------------------------------| 
E|---------------------|------------------------------------------------------| x4 
   
Bridge 

 C#m              A#              C#m                
e|-8-6--------------|---------------------------------------------------------| 
B|-----9-8-6----6---|-----6---------------------------------------------------| 
G|------------8-----|-7-7---8-7-8-7-5~----------------------------------------| 
D|------------------|---------------------------------------------------------| 
A|------------------|---------------------------------------------------------| 
E|------------------|---------------------------------------------------------|x1 


Chorus 

   C#m                A#            C#m                      A#            C#m 
e|-----------------|-------------------|------------------|---------------------| 
B|-----------------|-------------------|------------------|---------------------| 
G|-5-0-0-5-7-5-7-8-|--7-5-3-5-7-8-7-5--|--5-0-0-5-7-5-7-8-|--7-5-3-5-7-8-7-5----| 
D|-----------------|-------------------|------------------|---------------------| 
A|-----------------|-------------------|------------------|---------------------| 
E|-----------------|-------------------|------------------|---------------------| x2 

Verse 

   C#m              A#                    C#m                             
e|-----8-6------8-6----|-----6-8----------------------------------------------| 
B|-8-8------8-8----\9--|--6-6-----9-8-8-6-8-----------------------------------| 
G|---------------------|------------------------------------------------------| 
D|---------------------|------------------------------------------------------| 
A|---------------------|------------------------------------------------------| 
E|---------------------|------------------------------------------------------| x4 
   
Bridge 

 C#m              A#              C#m                
e|-8-6--------------|---------------------------------------------------------| 
B|-----9-8-6----6---|-----6---------------------------------------------------| 
G|------------8-----|-7-7---8-7-8-7-5~----------------------------------------| 
D|------------------|---------------------------------------------------------| 
A|------------------|---------------------------------------------------------| 
E|------------------|---------------------------------------------------------|x1 


Chorus 

   C#m                A#            C#m                      A#            C#m 
e|-----------------|-------------------|------------------|---------------------| 
B|-----------------|-------------------|------------------|---------------------| 
G|-5-0-0-5-7-5-7-8-|--7-5-3-5-7-8-7-5--|--5-0-0-5-7-5-7-8-|--7-5-3-5-7-8-7-5----| 
D|-----------------|-------------------|------------------|---------------------| 
A|-----------------|-------------------|------------------|---------------------| 
E|-----------------|-------------------|------------------|---------------------| ad libitum 

************** 
| \ Slide down 
| ~ Vibrato 
**************  
  

cifra enviadasem correções
enviado porenviada por:deivcavalcanti
top 5 | misc praise songs
top
Outras músicas do artista letras do(a) Misc Praise Songs
Top cifras »Top artistas »
Petaxxon Comunicação Online
Cifras.com.br - Melhor e mais completo site de cifras e tablaturas do Brasil
Mais de 1 milhão de acordes de músicas cadastradas desde 2003
As informações contidas no nosso site são colaborações de seus usuários e podem conter erros, sendo assim, não nos responsabilizamos sobre nenhuma destas.
close
menos
mais
close
Cor dos acordes:

Cor da letra:

 

save
close
close
 
redimensionar