Cifras e Tablaturas
Misc Soundtrack

Misc Soundtrack

Dimon Theme From Bumer

Cifras Cancelar Versão de Impressão

Misc Soundtrack - Dimon Theme From Bumer

Tom:

  			Song from Russian movie, called Bumer, also popular meme. 

e|-----------------------------------0---|-----------------------------------| 
B|---1-0-1-----------1-0-1-----1-3-------|---0---0-----------0---0-----------| 
G|---------------------------------------|-----2---------------2-------------| 
D|---------------------------------------|-----------------------------------| 
A|---0---------0---------0-------0-------|-----------------------------------| 
E|---------------------------------------|---3---------3----------3-----3----| 

e|--------------------------------------|------------------------------------| 
B|-----------------------------0----1---|------------------------------------| 
G|---2-0-2-------2-0-2-------2----------|---1---1-----------1---1------------| 
D|--------------------------------------|-----4---------------4--------------| 
A|--------------------------------------|------------------------------------| 
E|---1-------1-------1---------1--------|---0---------0---------0-----0------| 

e|-------------------------------------0--|---0----------0-------------------| 
B|---2-0-2-----------2-0-2-----2-4--------|----------------4-0---------------| 
G|----------------------------------------|----------------------------------| 
D|----------------------------------------|----------------------------------| 
A|-------0------0--------0-------0--------|----------------------------------| 
E|----------------------------------------|---0----0---------0-----0---------| 

e|----------------------------------------|----------------------------------| 
B|-------------------------------0-----1--|---1---------1-0------------------| 
G|---2-0-2-----------2-0-2-----2----------|-----------------1----------------| 
D|----------------------------------------|----------------------------------| 
A|----------------------------------------|----------------------------------| 
E|---1---------1---------1-------1--------|---0----0--------0-----0----------| 

e|--------------------------------0---|--------------------------------------| 
B|-------1----1----------1---3--------|---3-1-3-----------3-1-3--------------| 
G|------------------------------------|--------------------------------------| 
D|---3--------------------------------|--------------------------------------| 
A|------------------------------------|--------------------------------------| 
E|---1--------1-----1--------1--------|---3---------3---------3-----3--------| 

e|--------------------------------0--|---0-----------------------------------| 
B|--------1----1---------1---3-------|----------------3-1-0------------------| 
G|-----------------------------------|---------------------------------------| 
D|---3-------------------------------|---------------------------------------| 
A|-----------------------------------|---------------------------------------| 
E|---1---------1-----1-------1-------|---0------0---------0-------0----------| 
    	
fixar
fixar inscrever-se

enviado porenviado por: carlluz
cifra enviadaCorrigida por: sem correções
logo top cifrasComente
ico música do artistaMúsicas deste artista
ico curtiuCurtiu?
ico destaqueDestaque
Petaxxon Comunicação Online

Cifras.com.br - Melhor e mais completo site de cifras e tablaturas do Brasil Mais de 1 milhão de acordes de músicas cadastradas desde 2003
As informações contidas no nosso site são colaborações de seus usuários e podem conter erros, sendo assim, não nos responsabilizamos sobre nenhuma destas.

close
menos
mais
close
Cor dos acordes:

Cor da letra:

close
Alinhar acordes a direita Alinhar acordes a esquerda Alinhar acordes em baixo Alinhar acordes no topo
close
  Mostrar todos os acordes Esconder acordes muito fáceis Esconder acordes fáceis Esconder acordes intermediários
redimensionar
glossário