Cifras e Tablaturas
Misc Soundtrack

Misc Soundtrack

My Sassy Girl - Canon Variations

Cifras Cancelar Versão de Impressão
cifras

Misc Soundtrack - My Sassy Girl - Canon Variations

fixar na tela  
Exibindo: vídeo-aula ver clipes redimensionar

Tom:

  
Piano 1   
E|-0-------------------------|-----------3-------3---5---|-1---0-------1---0-----------------| 
B|-1---------1-------0-------|-1---------0-------0---1---|---------3-----------3---1---------| 
G|-0---------0-------0-------|-0---------0---------------|-2---------------0-----------0-----| 
D|---------------------------|-2-------------------------|-----------------------------------| 
A|---------------------------|---------------------------|-----------------------------------| 
E|---------------------------|---------------------------|-----------------------------------| 

E|---------------------------------|---------------------|------------------------| 
B|---------0---1---0-------1---3---|-17--------15--------|-13--------12-------20--| 
G|-2---------------0-------2-------|---------------------|------------------------| 
D|-3-------------------------------|---------------------|------------------------| 
A|---------------------------------|---------------------|------------------------| 
E|---------------------------------|---------------------|------------------------| 

E|---------------------------------|---------------------------------|-12-3--8--15--3--12------13--12--10--| 
B|-18--17--15--18--17--15--13--1---|-10------10--13--12--13--15------|---------------------17--------------| 
G|---------------------------------|---------------------------------|-------------------------------------| 
D|---------------------------------|---------------------------------|-------------------------------------| 
A|---------------------------------|---------------------------------|-------------------------------------| 
E|---------------------------------|---------------------------------|-------------------------------------| 

E|-8--0--5--12--0--8-------------------|-5-----1--8------5---3-----0--8------3---| 
B|---------------------13--15--13------|----1---------1---------1---------1------| 
G|-------------------------------------|-----------------------------------------| 
D|-------------------------------------|-----------------------------------------| 
A|-------------------------------------|-----------------------------------------| 
E|-------------------------------------|-----------------------------------------| 

E|-5-----1--8------5-----------------------|------------------------3--5--7--8--10-12-10-| 
B|----1---------1------12-3--12-3--13--15--|-17--17-18-20-18-17-15-----------------------| 
G|-----------------------------------------|---------------------------------------------| 
D|-----------------------------------------|---------------------------------------------| 
A|-----------------------------------------|---------------------------------------------| 
E|-----------------------------------------|---------------------------------------------| 

E|------------------------0--1--3--5--7--8--7--|-5-------------3--1--3--1--0--1--3--8--7--8--| 
B|-17--13-15-17-15-13-12-----------------------|-----13-12-10--------------------------------| 
G|---------------------------------------------|---------------------------------------------| 
D|---------------------------------------------|---------------------------------------------| 
A|---------------------------------------------|---------------------------------------------| 
E|---------------------------------------------|---------------------------------------------| 

E|-5--8--7--8--5--8--7--8--7--3--5--7--8--10-12-13-|------------------------3--5--7--8--10-12-13-| 
B|-------------------------------------------------|-20--17-18-20-18-17-15-----------------------| 
G|-------------------------------------------------|---------------------------------------------| 
D|-------------------------------------------------|---------------------------------------------| 
A|-------------------------------------------------|---------------------------------------------| 
E|-------------------------------------------------|---------------------------------------------| 

E|-12---------------------0--1--3--5--7--8--7--|-5-------------3--1--3--1--0--1--3--8--7--8--| 
B|-----13-15-17-15-13-12-----------------------|-----13-12-10--------------------------------| 
G|---------------------------------------------|---------------------------------------------| 
D|---------------------------------------------|---------------------------------------------| 
A|---------------------------------------------|---------------------------------------------| 
E|---------------------------------------------|---------------------------------------------| 

E|-5--8--7--8--5--8--7--8--7--3--5--7--8--10-12-13-|-12-3--8--15--3--12------13--12--10--| 
B|-------------------------------------------------|---------------------17--------------| 
G|-------------------------------------------------|-------------------------------------| 
D|-------------------------------------------------|-------------------------------------| 
A|-------------------------------------------------|-------------------------------------| 
E|-------------------------------------------------|-------------------------------------| 

E|-8--0--5--12--0--8-------------------|-5-----1--8------5---3-----0--8------3---| 
B|---------------------13--15--13------|----1---------1---------1---------1------| 
G|-------------------------------------|-----------------------------------------| 
D|-------------------------------------|-----------------------------------------| 
A|-------------------------------------|-----------------------------------------| 
E|-------------------------------------|-----------------------------------------| 

E|-5-----1--8------5-------------------------| 
B|----1---------1-----1--12-3--12-3--13--15--| 
G|-------------------------------------------| 
D|-------------------------------------------| 
A|-------------------------------------------| 
E|-------------------------------------------| 

E|-12-12-12-12-12-12-12-12-12-12-12-12-12-12-12-12-|-10-10-10-10-10-10-10-10-10-10-10-10-10-10-10-10-| 
B|-------------------------------------------------|-------------------------------------------------| 
G|-------------------------------------------------|-------------------------------------------------| 
D|-------------------------------------------------|-------------------------------------------------| 
A|-------------------------------------------------|-------------------------------------------------| 
E|-------------------------------------------------|-------------------------------------------------| 

E|-8-8-8-8-8-8-8-8-8-8-8-8-8-8-8-8-|-7-7-7-7-7-7-7-7-7-7-7-7-7-7-7-7-| 
B|---------------------------------|---------------------------------| 
G|---------------------------------|---------------------------------| 
D|---------------------------------|---------------------------------| 
A|---------------------------------|---------------------------------| 
E|---------------------------------|---------------------------------| 

E|-5-5-5-5-5-5-5-5-5-5-5-5-5-5-5-5-|3-3-3-3-3-3-3-3-3-3-3-3-3-3-3-3-| 
B|---------------------------------|--------------------------------| 
G|---------------------------------|--------------------------------| 
D|---------------------------------|--------------------------------| 
A|---------------------------------|--------------------------------| 
E|---------------------------------|--------------------------------| 

E|-5-5-5-5-5-5-5-5-5-5-5-5-5-5-5-5-7---------------|---------------------------|---------------------------| 
B|-------------------------------------12--13--15--|-17--------13------15------|-13--------20------20--22--| 
G|-------------------------------------------------|---------------------------|---------------------------| 
D|-------------------------------------------------|---------------------------|---------------------------| 
A|-------------------------------------------------|---------------------------|---------------------------| 
E|-------------------------------------------------|---------------------------|---------------------------| 

E|---------------------------------|-----------------------------------|-------------12--12--13--12--10--| 
B|-18--17--15--18--17--15--13--1---|-10------10--13--12------12-13-15--|-17------20----------------------| 
G|---------------------------------|-----------------------------------|---------------------------------| 
D|---------------------------------|-----------------------------------|---------------------------------| 
A|---------------------------------|-----------------------------------|---------------------------------| 
E|---------------------------------|-----------------------------------|---------------------------------| 

E|-----------8---10--8---7---|-------------5---------------3---|--------------------------------| 
B|-13------------------------|-10------13------8-------13------|-10------10-12-13--12---13------| 
G|---------------------------|---------------------------------|--------------------------------| 
D|---------------------------|---------------------------------|--------------------------------| 
A|---------------------------|---------------------------------|--------------------------------| 
E|---------------------------|---------------------------------|--------------------------------| 

E|------------------------3--5--7--8--10-12-13-|-12---------------------0--1--3--5--7--8--7--| 
B|-17--17-18-20-18-17-15-----------------------|-----13-15-17-15-13-12-----------------------| 
G|---------------------------------------------|---------------------------------------------| 
D|---------------------------------------------|---------------------------------------------| 
A|---------------------------------------------|---------------------------------------------| 
E|---------------------------------------------|---------------------------------------------| 

E|-5-------------3--1--3--1--0--1--3--8--7--8--|-5--8--7--8--5--8--7--8--7--3--5--7--8--10-12-13-| 
B|-----13-12-10--------------------------------|-------------------------------------------------| 
G|---------------------------------------------|-------------------------------------------------| 
D|---------------------------------------------|-------------------------------------------------| 
A|---------------------------------------------|-------------------------------------------------| 
E|---------------------------------------------|-------------------------------------------------| 

E|------------------------3--5--7--8--10-12-13-|-12---------------------0--1--3--5--7--8--7--| 
B|-20--17-18-20-18-17-15-----------------------|-----13-15-17-15-13-12-----------------------| 
G|---------------------------------------------|---------------------------------------------| 
D|---------------------------------------------|---------------------------------------------| 
A|---------------------------------------------|---------------------------------------------| 
E|---------------------------------------------|---------------------------------------------| 

E|-5-------------3--1--3--1--0--1--3--8--7--8--|-5--8--7--8--5--8--7--8--7--3--5--7--8--10-12-13-| 
B|-----13-12-10--------------------------------|-------------------------------------------------| 
G|---------------------------------------------|-------------------------------------------------| 
D|---------------------------------------------|-------------------------------------------------| 
A|---------------------------------------------|-------------------------------------------------| 
E|---------------------------------------------|-------------------------------------------------| 

E|-12-3--8--15--3--12-3-----3--13-3--12-3--10-3--|-8--0--5--12--0--8--0-----0-----0-----0--7--0--| 
B|-----------------------17----------------------|-----------------------13----15----13----------| 
G|-----------------------------------------------|-----------------------------------------------| 
D|-----------------------------------------------|-----------------------------------------------| 
A|-----------------------------------------------|-----------------------------------------------| 
E|-----------------------------------------------|-----------------------------------------------| 

E|-5-----1--8------5-----3-----0--8------3-----|-5-----1--8------5-----------------------------| 
B|----1---------1-----1-----1---------1-----1--|----1---------1-----1--12-3--12-3--13-3--15-3--| 
G|---------------------------------------------|-----------------------------------------------| 
D|---------------------------------------------|-----------------------------------------------| 
A|---------------------------------------------|-----------------------------------------------| 
E|---------------------------------------------|-----------------------------------------------| 

E|------------------------3--5--7--8--10-12-13-|-12---------------------0--1--3--5--7--8--7--| 
B|-20--17-18-20-18-17-15-----------------------|-----13-15-17-15-13-12-----------------------| 
G|---------------------------------------------|---------------------------------------------| 
D|---------------------------------------------|---------------------------------------------| 
A|---------------------------------------------|---------------------------------------------| 
E|---------------------------------------------|---------------------------------------------| 

E|-5-------------3--1--3--1--0--1--3--8--7--8--|-5--8--7--8--5--8--7--8--7--3--5--7--8--10-12-13-| 
B|-----13-12-10--------------------------------|-------------------------------------------------| 
G|---------------------------------------------|-------------------------------------------------| 
D|---------------------------------------------|-------------------------------------------------| 
A|---------------------------------------------|-------------------------------------------------| 
E|---------------------------------------------|-------------------------------------------------| 

E|-8---------10-12-15-20-22--15--| 
B|-------------------------------| 
G|-------------------------------| 
D|-------------------------------| 
A|-------------------------------| 
E|-------------------------------| 

Piano 2 
E|---------------------|---------------------|---------------------|---------------------| 
B|---------------------|---------------------|---------------------|---------------------| 
G|---------------------|---------------------|---------------------|---------------------| 
D|---------------------|---------------------|---------------------|---------------------| 
A|---------------------|-0-------------------|---------------------|---------------------| 
E|-----------3---------|-----------0---------|-1-------------------|-1---------3---------| 
B|-1-------------------|---------------------|-----------1---------|---------------------| 

E|---------0-----------------------|---------------------------------|---------------------------------| 
B|-------------------------0-------|---------1-----------------------|---------------------------------| 
G|-----0---------------------------|-------------------------0-------|---------2-----------------------| 
D|---------------------0-----------|-----2---------------------------|-------------------------2-------| 
A|-3-------------------------------|-0-------------------2-----------|-----3---------------------------| 
E|-----------------3---------------|-----------------0---------------|-1-------------------3-----------| 
B|---------------------------------|---------------------------------|-----------------1---------------| 

E|---------------------------------|---------0-----------------------|---------------------------------| 
B|-------------------------0-------|-------------1-----------0-------|---------1-----------------------| 
G|---------2-----------------------|-----0-----------------------0---|-------------2-----------0-------| 
D|---------------------0-----------|---------------------0-----------|-----2---------------------------| 
A|-----3---------------------------|-3-------------------------------|-0-------------------2-----------| 
E|-1---------------3---------------|-----------------3---------------|-----------------0---------------| 
B|---------------------------------|---------------------------------|---------------------------------| 

E|---------------------------------|---------------------------------|---------0-----------------------| 
B|---------------------------------|-------------------------0-------|-1-----------------------0-------| 
G|---------2-----------------------|---------2-------------------0---|-----0-----------0---------------| 
D|-------------3-----------2-------|-------------3-------0-----------|---------------------0-----------| 
A|-----3-----------------------3---|-----3---------------------------|-3-------------------------------| 
E|-1-------------------3-----------|-1---------------3---------------|-----------------3---------------| 
B|-----------------1---------------|---------------------------------|---------------------------------| 

E|---------------------------------|---------------------------------|---------------------------------| 
B|---------1-----------------------|---------------------------------|-------------------------0-------| 
G|-2-----------------------0-------|---------2-----------------------|---------2-------0---------------| 
D|-----2-----------2---------------|-3-----------------------2-------|-3-------------------0-----------| 
A|-0-------------------2-----------|-----3-----------3---------------|-----3---------------------------| 
E|-----------------0---------------|-1-------------------3-----------|-1---------------3---------------| 
B|---------------------------------|-----------------1---------------|---------------------------------| 

E|---------0-----------------------|---------------------------------|---------------------------------| 
B|-1-----------------------0-------|---------1-----------------------|---------------------------------| 
G|-----0-----------0---------------|-2-----------------------0-------|---------2-----------------------| 
D|---------------------0-----------|-----2-----------2---------------|-3-----------------------2-------| 
A|-3-------------------------------|-0-------------------2-----------|-----3-----------3---------------| 
E|-----------------3---------------|-----------------0---------------|-1-------------------3-----------| 
B|---------------------------------|---------------------------------|-----------------1---------------| 

E|---------------------------------|---------0-----------------------|---------------------------------| 
B|-------------------------0-------|-------------1-----------0-------|---------1-----------------------| 
G|---------2-------0---------------|-----0-----------------------0---|-------------2-----------0-------| 
D|-3-------------------0-----------|---------------------0-----------|-----2---------------------------| 
A|-----3---------------------------|-3-------------------------------|-0-------------------2-----------| 
E|-1---------------3---------------|-----------------3---------------|-----------------0---------------| 
B|---------------------------------|---------------------------------|---------------------------------| 

E|---------------------------------|---------------------------------|---------0-----------------------| 
B|---------------------------------|-------------------------0-------|-------------1-----------0-------| 
G|---------2-----------------------|---------2-----------------------|-----0-----------------------0---| 
D|-------------3-----------2-------|-------------3-------0-----------|---------------------0-----------| 
A|-----3---------------------------|-----3---------------------------|-3-------------------------------| 
E|-1-------------------3-----------|-1---------------3---------------|-----------------3---------------| 
B|-----------------1---------------|---------------------------------|---------------------------------| 

E|---------------------------------|---------------------------------|---------------------------------| 
B|---------1-----------------------|---------------------------------|-------------------------0-------| 
G|-------------2-----------0-------|---------2-----------------------|---------2-------------------0---| 
D|-----2-----------------------2---|-------------3-----------2-------|-------------3-------0-----------| 
A|-0-------------------2-----------|-----3-----------------------3---|-----3---------------------------| 
E|-----------------0---------------|-1-------------------3-----------|-1---------------3---------------| 
B|---------------------------------|-----------------1---------------|---------------------------------| 

E|---------0-----------------------|---------------------------------|---------------------------------| 
B|-------------------------0-------|---------1-----------------------|---------------------------------| 
G|-----0---------------------------|-------------------------0-------|---------2-----------------------| 
D|---------------------0-----------|-----2---------------------------|-------------------------2-------| 
A|-3-------------------------------|-0-------------------2-----------|-----3---------------------------| 
E|-----------------3---------------|-----------------0---------------|-1-------------------3-----------| 
B|---------------------------------|---------------------------------|-----------------1---------------| 

E|---------------------------------|---------0-----------------------|---------------------------------| 
B|-------------------------0-------|-------------------------0-------|---------1-----------------------| 
G|---------2-----------------------|-----0---------------------------|-------------------------0-------| 
D|---------------------0-----------|---------------------0-----------|-----2---------------------------| 
A|-----3---------------------------|-3-------------------------------|-0-------------------2-----------| 
E|-1---------------3---------------|-----------------3---------------|-----------------0---------------| 
B|---------------------------------|---------------------------------|---------------------------------| 

E|---------------------------------|---------------------------------|---------0-----------------------| 
B|---------------------------------|-------------------------0-------|-1-----------1-----------0-------| 
G|---------2-----------------------|---------2-----------------------|-----0-----------0-----------0---| 
D|-------------------------2-------|---------------------0-----------|---------------------0-----------| 
A|-----3---------------------------|-----3---------------------------|-3-------------------------------| 
E|-1-------------------3-----------|-1---------------3---------------|-----------------3---------------| 
B|-----------------1---------------|---------------------------------|---------------------------------| 

E|---------------------------------|---------------------------------|---------------------------------| 
B|---------1-----------------------|---------------------------------|-------------------------0-------| 
G|-2-----------2-----------0-------|---------2-----------------------|---------2-------0-----------0---| 
D|-----2-----------2-----------2---|-3-----------3-----------2-------|-3-----------3-------0-----------| 
A|-0-------------------2-----------|-----3-----------3-----------3---|-----3---------------------------| 
E|-----------------0---------------|-1-------------------3-----------|-1---------------3---------------| 
B|---------------------------------|-----------------1---------------|---------------------------------| 

E|---------0-----------------------|---------------------------------|---------------------------------| 
B|-1-----------1-----------0-------|---------1-----------------------|---------------------------------| 
G|-----0-----------0-----------0---|-2-----------2-----------0-------|---------2-----------------------| 
D|---------------------0-----------|-----2-----------2-----------2---|-3-----------3-----------2-------| 
A|-3-------------------------------|-0-------------------2-----------|-----3-----------3-----------3---| 
E|-----------------3---------------|-----------------0---------------|-1-------------------3-----------| 
B|---------------------------------|---------------------------------|-----------------1---------------| 

E|---------------------------------|---------0-----------------------|---------------------------------| 
B|-------------------------0-------|-------------1-----------0-------|---------1-----------------------| 
G|---------2-------0-----------0---|-----0-----------------------0---|-------------2-----------0-------| 
D|-3-----------3-------0-----------|---------------------0-----------|-----2---------------------------| 
A|-----3---------------------------|-3-------------------------------|-0-------------------2-----------| 
E|-1---------------3---------------|-----------------3---------------|-----------------0---------------| 
B|---------------------------------|---------------------------------|---------------------------------| 

E|---------------------------------|---------------------------------|---------0-----------------------| 
B|---------------------------------|-------------------------0-------|-1-----------1-----------0-------| 
G|---------2-----------------------|---------2-----------------------|-----0-----------0-----------0---| 
D|-------------3-----------2-------|-------------3-------0-----------|---------------------0-----------| 
A|-----3---------------------------|-----3---------------------------|-3-------------------------------| 
E|-1-------------------3-----------|-1---------------3---------------|-----------------3---------------| 
B|-----------------1---------------|---------------------------------|---------------------------------| 

E|---------------------------------|---------------------------------|---------------------------------| 
B|---------1-----------------------|---------------------------------|-------------------------0-------| 
G|-2-----------2-----------0-------|---------2-----------------------|---------2-------0-----------0---| 
D|-----2-----------2-----------2---|-3-----------3-----------2-------|-3-----------3-------0-----------| 
A|-0-------------------2-----------|-----3-----------3-----------3---|-----3---------------------------| 
E|-----------------0---------------|-1-------------------3-----------|-1---------------3---------------| 
B|---------------------------------|-----------------1---------------|---------------------------------| 

E|----------------0--3--8--------| 
B|----------1--3-----------------| 
G|-------0-----------------------| 
D|----2--------------------------| 
A|-3-----------------------------| 
E|-------------------------------| 
B|-------------------------------| 
  

top 5 | misc soundtrack
top latinas
Outras músicas do artista letras do(a) Misc Soundtrack
Top cifras »Top artistas »
Petaxxon Comunicação Online
Cifras.com.br - Melhor e mais completo site de cifras e tablaturas do Brasil
Mais de 1 milhão de acordes de músicas cadastradas desde 2003
As informações contidas no nosso site são colaborações de seus usuários e podem conter erros, sendo assim, não nos responsabilizamos sobre nenhuma destas.
close
menos
mais
close
Cor dos acordes:

Cor da letra:

 

save
close
close
 
redimensionar