Cifras e Tablaturas
Misc Soundtrack

Misc Soundtrack

Neruppu Da Theme

Cifras Cancelar Versão de Impressão
cifras

Misc Soundtrack - Neruppu Da Theme

fixar na tela  
Exibindo: vídeo-aula ver clipes redimensionar

Tom:

  
Intro Slides: 
Effect: Distortion (Heavy crunch tone) 
e|-------------------------------------------------------------| 
B|-------------------------------------------------------------| 
G|-------------------------------------------------------------| 
D|-------------------------------------------------------------| 
A|-------------------------------------------------------------| 
E|----------------12\\\\\\2------------------------------------| 
A|----2///////14-----------------------------------------------| 


Riff 1: Main Riff 
Effect: Distortion (Heavy crunch tone) 
e|---------------------------------------------------------------------------------------| 
B|---------------------------------------------------------------------------------------| 
G|--------------4^----------------7^----------------9^-----------------------------------| 
D|--4--4--4--4-------4--4--4--4--------4--4--4--4---9^--4--4--4--------------------------| 
A|--2--2--2--2--2^---2--2--2--2---5^---2--2--2--2-------2--2--2--------------------------| 
E|----------------------------------------------------------------------------12\\\\\\2--| 
A|----------------------------------------------------------------2///////14-------------| 
   PM PM PM PM      PM PM PM PM       PM PM PM PM      PM PM PM 

Intro Slides 

e-------------------------------------------------------------------------------------| 
B-------------------------------------------------------------------------------------| 
G---------------4^---------------7^-----------------9^--------------------------------| 
D--4--4--4--4--------4--4--4--4-------4--4--4--4----9^-----4--4--4--4-----------------| 
A--2--2--2--2---2^---2--2--2--2--5^---2--2--2--2-----------2--2--2--2-----------------| 
E-------------------------------------------------------------------------------------| 
A---------------------------------------------------------------------------14\\\\\2--| 
  PM PM PM PM       PM PM PM PM      PM PM PM PM          PM PM PM PM 

Riff 2: Heavy Riff: Palm Muted 
Effect: Heavy Distortion 
e|--------------------------------------------------------------| 
B|--------------------------------------------------------------| 
G|--------------------------------------------------------------| 
D|--------------------------------------------------------------|x3 
A|--------------------------------------------------------------| 
E|----------------------------P.H-------------------------------| 
A|--2-0-2-3-0-2-3-0-2-0-3-2-0--6^-------------------------------| 
    . . . . . . . . . . . . . 

Heavy Riff: Palm Muted on the dots 
e|--------------------------------------------------------------| 
B|--------------------------------------------------------------| 
G|--------------------------------------------------------------| 
D|--------------------------------------------------------------|x1 
A|----------------------33333333--------------------------------| 
E|--------------------------------------------------------------| 
A|--2-0-2-3-0-2-3-0---------------------------------------------| 
    . . . . . . . . 


Riff 3a: 
Effect: Distortion (Crunch Tone) + Analog Chorus + Reverb 
Note: Volume knob in the guitar as less as possible or engage heavy gate level to cut  
out the sustain. 
e|-------------------------------------------------------------------------| 
B|-------------------------------------------------------------------------| 
G|--4-4-4-44-5-4-2---4-4-4-44-5-4-2---4-4-5-55-4-5-7--8-7-8-5-4------------| 
D|-------------------------------------------------------------------------| 
A|-------------------------------------------------------------------------| 
E|-------------------------------------------------------------------------| 
A|-------------------------------------------------------------------------| 

Riff 4: Behind Riff 3a: 
Effect: Distortion (Heavy crunch tone) 
e|-------------------------------------------------------------------| 
B|-------------------------------------------------------------------| 
G|-------------------------------------------------------------------| 
D|--4--4--4--4-----4--4--4--4-----4--4--4--4-----4--4--4--4----------| 
A|--2--2--2--2-----2--2--2--2-----2--2--2--2-----2--2--2--2----------| 
E|-------------------------------------------------------------------| 
A|-------------------------------------------------------------------| 
   PM PM PM PM    PM PM PM PM    PM PM PM PM    PM PM PM PM 


Solo: 
Effect: Distortion for a suitable solo tone + Reverb 
e|--------------------------------------------------------------------------------------------------| 
B|-10~12b12--10~12b10--10~12b10--10~12b10--10~12b10--10~12b10--10~12b10-10-15-15-15-15-15-15-15-15--| 
G|-------------------------------------------------------------------------14-14-14-14-14-14-14-14--| 
D|--------------------------------------------------------------------------------------------------| 
A|--------------------------------------------------------------------------------------------------| 
E|--------------------------------------------------------------------------------------------------| 
A|--------------------------------------------------------------------------------------------------| 


e|--------------------------------------------------------------------------------------------------| 
B|-10~12b10--10~12b10--10~12b10--10-15-15-15-15-15-15-15-15--17-17-17-17-17-17-17-17----------------| 
G|----------------------------------14-14-14-14-14-14-14-14--16-16-16-16-16-16-16-16----------------| 
D|--------------------------------------------------------------------------------------------------| 
A|--------------------------------------------------------------------------------------------------| 
E|--------------------------------------------------------------------------------------------------| 
A|--------------------------------------------------------------------------------------------------| 

Solo Backing riff: Riff 2 

Riff 5a: 
Effect: Clean tone with high gain. 
Note: Engage single coil pickup if your guitar has humbucker pick ups.  
Pull out the tone knob to see if you have the single coil pick up enabling option in your guitar  

Neruppu da nerungu da paapom 
e|---------------------------------------------------------------------| 
B|---------------------------------------------------------------------| 
G|---------------------------------------------------------------------| 
D|---------------------------------------------------------------------| x 7 
A|---0-2-0-2-0-2-0-2-0-2-3-5---------------------3-3-3-3---------------| 
E|-----------------------------3-3-3-3-0-0-0-0-------------------------| 
A|---------------------------------------------------------------------| 


Riff 5b: Comes in after 4 times of Riff 5a 
e|---7-7-x-7-7-x-7-7-x-7-7-x-x-x-x-x------------------------------| 
B|----------------------------------------------------------------| 
G|----------------------------------------------------------------| 
D|----------------------------------------------------------------|X3 
A|----------------------------------------------------------------| 
E|----------------------------------------------------------------| 
A|----------------------------------------------------------------| 

e|---7-7-x-7-7-x-7-7-x-8/10-10-10/12-12-12------------------------| 
B|----------------------------------------------------------------| 
G|----------------------------------------------------------------| 
D|----------------------------------------------------------------|X1 
A|----------------------------------------------------------------| 
E|----------------------------------------------------------------| 
A|----------------------------------------------------------------| 


Riff 4: Karunayai maru, Kavalaigal aru 

Riff 3b: 
Effect: Distortion (Crunch Tone) + Analog Chorus + Reverb 
Note: Volume knob in the guitar as less as possible or engage heavy gate level to cut out the sustain 

e|------------------------------------------------------------------| 
B|------------------------------------------------------------------| 
G|--4-44-5-4-4-2---4-5-5-7-8---8b-7-8-7--8-7-5--578-7-5-4-----------| 
D|------------------------------------------------------------------| 
A|------------------------------------------------------------------| 
E|------------------------------------------------------------------| 
A|------------------------------------------------------------------| 

Backing for Riff 3b: Riff 4 

Riff 6: 
Effect: Clean tone with single coil pickup 
e|---7-7-x-7-7-x-7-7-x-7--x-x-x-x---------------------------------| 
B|----------------------------------------------------------------| 
G|----------------------------------------------------------------| 
D|----------------------------------------------------------------|X2 
A|----------------------------------------------------------------| 
E|----------------------------------------------------------------| 
A|----------------------------------------------------------------| 

Continues with 
Riff 5a, 5b and 3a.. 

End 


************************************ 

\\ Slide Up 
// Slide Down 
PM or . - Palm Mute 
^ - Bend down 
b - Bend Up 
P.H - Pinch Harmonic 

************************************ 
  

top 5 | misc soundtrack
top latinas
Outras músicas do artista letras do(a) Misc Soundtrack
Top cifras »Top artistas »
Petaxxon Comunicação Online
Cifras.com.br - Melhor e mais completo site de cifras e tablaturas do Brasil
Mais de 1 milhão de acordes de músicas cadastradas desde 2003
As informações contidas no nosso site são colaborações de seus usuários e podem conter erros, sendo assim, não nos responsabilizamos sobre nenhuma destas.
close
menos
mais
close
Cor dos acordes:

Cor da letra:

 

save
close
close
 
redimensionar