Cifras e Tablaturas
Misc Soundtrack

Misc Soundtrack

Swiss Army Man - A Better Way (acoustic)

Cifras Cancelar Versão de Impressão
cifras

Misc Soundtrack - Swiss Army Man - A Better Way (acoustic)

fixar na tela  
Exibindo: vídeo-aula ver clipes redimensionar

Tom:

  
Main riff 

e|---------------------------------------------------------------------------| 
B|---------------------------------------------------------------------------| 
G|---------------------------------------------------------------------------| 
D|-----------------------------------4-------4-------4-------4-2-0-----------| 
A|---4-------4-------4-------4-2-0-------------------------------------------| 
E|-------5-------5-------5---------------5-------5-------5-------------------| 

e|---------------------------------------------------------------------------| 
B|---------------------------------------------------------------------------| 
G|---------------------------------------------------------------------------| 
D|---------------------------------------------------------------------------| 
A|--4-------4-------4-------4-2-0---5-------5-------5-------5-4-2------------| 
E|------5-------5-------5---------------5-------5-------5--------------------| 
  

top 5 | misc soundtrack
top latinas
Outras músicas do artista letras do(a) Misc Soundtrack
Top cifras »Top artistas »
Petaxxon Comunicação Online
Cifras.com.br - Melhor e mais completo site de cifras e tablaturas do Brasil
Mais de 1 milhão de acordes de músicas cadastradas desde 2003
As informações contidas no nosso site são colaborações de seus usuários e podem conter erros, sendo assim, não nos responsabilizamos sobre nenhuma destas.
close
menos
mais
close
Cor dos acordes:

Cor da letra:

 

save
close
close
 
redimensionar