Cifras e Tablaturas
Misc Soundtrack

Misc Soundtrack

The Decalogue 6 - Title Theme

Cifras Cancelar Versão de Impressão
cifras

Misc Soundtrack - The Decalogue 6 - Title Theme

fixar na tela  
Exibindo: vídeo-aula ver clipes redimensionar

Tom:

  
e||--------------------------|-------------------------| 
B||-10---9---7---6---7---9---|-------------------------| 
G||--------------------------|-6-----------------------| 
D||----7---7---7---6---6---6-|---7---7---7---7---7---7-| 
A||--------------------------|-----9---9-------9---9---| 
E||--------------------------|-------------9-----------| 

   ........... ...........   ....................... 
e|-------------------------|-------------------------| 
B|-0---7---5---------------|-0-----------------------| 
G|-------------7---6---7---|-------------------------| 
D|---4---4---4---6---6---6-|---4---4---4---4---4---4-| 
A|-------------------------|-----5---5-------5---5---| 
E|-------------------------|-------------7-----------| 

   .......................   ........................ 
e|-------------------------|--------------------------| 
B|-0-----------0-----------|-7---9---10---7-----------| 
G|-----6---7---------------|--------------------------| 
D|---6---6---6---6---6---6-|---7---7----7---7---7---7-| 
A|-----------------7---7---|------------------9---9---| 
E|-------------------------|--------------------------| 

   ............. ............ ........ ...   IV..................... 
e|-----------------------------------------|-------------------------| 
B|-12---10---9---10---9---7---9---10---7---|-6-----------------------| 
G|-----------------------------------------|---4---4---4---4---4---4-| 
D|----9----9---9----7---7---7---9----9---7-|-----6---6-------6---6---| 
A|-----------------------------------------|-------------4-----------| 
E|-----------------------------------------|-------------------------| 

   ............ .............   II..................... 
e|-9---7----------------------|-2-----------------------| 
B|---------10---9---10---12---|-------------------------| 
G|----------------------------|---2---2---2---2---2---2-| 
D|---7---7----7---9----9----9-|-----4---4-------4---4---| 
A|----------------------------|-------------------------| 
E|----------------------------|-------------2-----------| 

     ......... .............   VII.................... 
e|-----7---9---10---9---10---|-7-----------------------| 
B|-0-------------------------|-------------------------| 
G|---------------------------|---7---7---7---7---7---7-| 
D|---7---7---7----9---9----9-|-----9---9-------9---9---| 
A|---------------------------|-------------------------| 
E|---------------------------|-------------7-----------| 

   ...........................   .................................. 
e|-----------------------------|-------------------9----------------| 
B|-9---10---12---9-------------|-10----12----10---------------------| 
G|-----------------------------|---------------------11----11----11-| 
D|---9----9----9---9----9----9-|----11----11----11------11----11----| 
A|-------------------11---11---|------------------------------------| 
E|-----------------------------|------------------------------------| 

   ............ ........... ........ ...   IV..................... 
e|-10---9---7---9---7---5----------------|-------------------------| 
B|--------------------------9---10---7---|-6-----------------------| 
G|---------------------------------------|---4---4---4---4---4---4-| 
D|----9---9---9---7---7---7---9----9---7-|-----6---6-------6---6---| 
A|---------------------------------------|-------------4-----------| 
E|---------------------------------------|-------------------------| 

   ............ .............   II..................... 
e|-9---7----------------------|-5-----------------------| 
B|---------10---9---10---12---|-------------------------| 
G|----------------------------|---2---2---2---2---2---2-| 
D|---7---7----7---9----9----9-|-----4---4-------4---4---| 
A|----------------------------|-------------------------| 
E|----------------------------|-------------2-----------| 

   ............ ...........   v...................... 
e|--------------------------|-------------------------| 
B|-10---8---7---5---7---5---|-7-----------------------| 
G|--------------------------|---7---7---7---7---7---7-| 
D|----7---7---7---7---7---7-|-----7---7-------7---7---| 
A|--------------------------|-------------5-----------| 
E|--------------------------|-------------------------| 

   ........... ........... ...........   II..................... 
e|-------------------------------------|-5-----------------------| 
B|-0-------------------0-----------7---|-------------------------| 
G|-----6---7---7---6-------6---7-------|---2---2---2---2---2---2-| 
D|---7---7---7---6---6---6---7---7---7-|-----4---4-------4---4---| 
A|-------------------------------------|-------------------------| 
E|-------------------------------------|-------------2-----------| 

   ............ VII....................   ........... IV..................... 
e|-10---9---7---------------------------|-7---5---4---------------------------| 
B|--------------7-----------------------|-------------6-----------------------| 
G|----7---7---7---7---7---7---7---7---7-|---4---4---4---4---4---4---4---4---4-| 
D|------------------9---9-------9---9---|-----------------6---6-------6---6---| 
A|--------------------------------------|-------------------------4-----------| 
E|--------------------------7-----------|-------------------------------------| 
  
   ........... ........... ...........   II 
e|-------------7---5---4---------------|-2-|| 
B|-----7---9---------------6---7---9---|---|| 
G|-6-----------------------------------|-2-|| 
D|---9---9---9---7---7---7---9---9---9-|---|| 
A|-------------------------------------|-4-|| 
E|-------------------------------------|-2-|| 
  

top 5 | misc soundtrack
top latinas
Outras músicas do artista letras do(a) Misc Soundtrack
Top cifras »Top artistas »
Petaxxon Comunicação Online
Cifras.com.br - Melhor e mais completo site de cifras e tablaturas do Brasil
Mais de 1 milhão de acordes de músicas cadastradas desde 2003
As informações contidas no nosso site são colaborações de seus usuários e podem conter erros, sendo assim, não nos responsabilizamos sobre nenhuma destas.
close
menos
mais
close
Cor dos acordes:

Cor da letra:

 

save
close
close
 
redimensionar