Cifras e Tablaturas
Misc Television

Misc Television

Die Beiden Grenadiere Theme

Cifras Cancelar Versão de Impressão
cifras

Misc Television - Die Beiden Grenadiere Theme

fixar na tela  
Exibindo: vídeo-aula ver clipes redimensionar

Tom:

  
Part 1 (X2)  
e|---x--x--x--x-------x--x--x--x-----x--x--x--x-----x--x--x----x--x---------|  
B|---x--x--x--x-------x--x--x--x-----x--x--x--x-----x--x--x----x--x---------|  
G|---5--x--5--x-------5--7--x--7-----7--8--x--8-----8--10-10---12-12--------|  
D|---5--x--5--x-------5--7--x--7-----7--8--x--8-----8--10-10---12-12--------|  
A|---3--x--3--x-------3--5--x--5-----5--6--x--6-----6--8--8----10-10--------|  
E|---0--x--0--x-------0--0--x--0-----0--0--x--0-----0--0--0----0--0---------|  
   
Part 2  
e|---3---------3--------------------------------------------------------------------|  
B|---3---4-3-4---6-4-3--3s4------7-6-7-11-9-7-6-10---12-11-9-------7-6-4--7-6-4-7---|  
G|---5------------------------------------------------------------------------------|  
D|---5------------------------------------------------------------------------------|  
A|---3------------------------------------------------------------------------------|  
E|---0------------------------------------------------------------------------------|  

Part 3  
e|---x--x--x---x---x----------------------|  
B|---x--x--x---x---x----------------------|  
G|---5--7--8---10--12---------------------|  
D|---5--7--8---10--12---------------------|  
A|---3--5--6---8---12---------------------|  
E|---0--0--0---0---0----------------------!  

REPEAT ALL!  


************************************  

| x  Dead note  

************************************  

  

top 5 | misc television
top diversos
Outras músicas do artista letras do(a) Misc Television
Top cifras »Top artistas »
Petaxxon Comunicação Online
Cifras.com.br - Melhor e mais completo site de cifras e tablaturas do Brasil
Mais de 1 milhão de acordes de músicas cadastradas desde 2003
As informações contidas no nosso site são colaborações de seus usuários e podem conter erros, sendo assim, não nos responsabilizamos sobre nenhuma destas.
close
menos
mais
close
Cor dos acordes:

Cor da letra:

 

save
close
close
 
redimensionar