Cifras e Tablaturas
Misc Television

Misc Television

Strictly Come Dancing Theme

Cifras Cancelar Versão de Impressão
cifras

Misc Television - Strictly Come Dancing Theme

fixar na tela  
Exibindo: vídeo-aula ver clipes redimensionar
  
Intro  
Bm Bm F# (2nd fret) slide to F# (14th fret) 

Main Riff x2 
    Bm                 F#       Bm 
e|----------------12-14------------------------------------------| 
B|-15-15-14-12-15-------14-14-12-11-12---------------------------| 
G|------------------------------------------7-6-4----------------| 
D|--------------------------------------4-4----------------------| 
A|---------------------------------------------------------------| 
E|---------------------------------------------------------------| 
    Bm                Bm                F# 
e|----------------12-14------------------------------------------| 
B|-15-15-14-12-15-------12-15-14-12-11---------------------------| 
G|-------------------------------------------4-(let ring)--------|  
D|-------------------------------------4-4-7---------------------| 
A|---------------------------------------------------------------| 
E|---------------------------------------------------------------| 

  Bm-Bm / A  /  G                       F# G A G F# 
e|-----------------------7-9-10-12-14----------------------------| 
B|--------------8-7-8-10-----------------------------------------| 
G|---------------------------------------------------------------| 
D|---------------------------------------------------------------| 
A|---------------------------------------------------------------| 
E|---------------------------------------------------------------| 

Ending 
    Bm                 F#       Bm 
e|----------------12-14------------------------------------------| 
B|-15-15-14-12-15-------14-14-12-11-12---11-12-12-12-------------| 
G|---------------------------------------------------------------| 
D|---------------------------------------------------------------| 
A|---------------------------------------------------------------| 
E|---------------------------------------------------------------| 
  

cifra enviadasem correções
enviado porenviada por:aman_claudino
top 5 | misc television
top diversos
Outras músicas do artista letras do(a) Misc Television
Top cifras »Top artistas »
Petaxxon Comunicação Online
Cifras.com.br - Melhor e mais completo site de cifras e tablaturas do Brasil
Mais de 1 milhão de acordes de músicas cadastradas desde 2003
As informações contidas no nosso site são colaborações de seus usuários e podem conter erros, sendo assim, não nos responsabilizamos sobre nenhuma destas.
close
menos
mais
close
Cor dos acordes:

Cor da letra:

 

save
close
close
 
redimensionar