Cifras e Tablaturas
Misc Traditional

Misc Traditional

Fields Of Athenry

Cifras Cancelar Versão de Impressão

Misc Traditional - Fields Of Athenry

Tom: D

  			
Intro 
    
    D                               G 
e|--------2---------------2-------------------------------3----------| 
B|----3-------3---3---3-------3---3-------3--------------------------| 
G|------2-------2-------2-------2-----0-------0---0---0-------0---0--| 
D|--0-----------------------------------0-------0-------0-------0----| 
A|-------------------------------------------------------------------| 
E|----------------------------------3---------------3----------------| 


verse 1 

    G                               C               G               D 
e|------------------------3-----------------------------------------------2---------------2---------| 
B|--------3-------------------------------1---------------0-----------3-------3---3---3-------3---3-| 
G|----0-------0---0---0-------0---0---0-------0---0---0-------0---0-----2-------2-------2-------2---| 
D|------0-------0-------0-------0-------2-------2-------0-------0---0-------------------------------| 
A|----------------------------------3---------------------------------------------------------------| 
E|--3---------------3-------------------------------3-----------------------------------------------| 
By a lonely...                    I heard...        calling... 

    G               C               D                               G               C 
e|----------------------------------------2---------------2-----------------------------------------| 
B|--------3---------------1-----------3-------3---3---3-------3---3-------3---------------1---------| 
G|----0-------0---0---0-------0---0-----2-------2---------------2-----0-------0---0---0-------0---0-| 
D|------0-------0-------2-------2---0-----------------------------------0-------0-------2-------2---| 
A|------------------3---------------------------------------------------------------3---------------| 
E|--3---------------------------------------------------------------3-------------------------------| 
    Michael...      taking...      away...                          For...          corn... 

    G               D                                               G 
e|------------------------2---------------2---------------2-------------------------------3---------| 
B|--------0-----------3-------3---3---3-------3---3---3-------3---3-------3-------------------------| 
G|----0-------0---0-----2-------2-------2-------2-------2-------2-----0-------0---0---0-------0---0-| 
D|------0-------0---0---------------0-----------------------------------0-------0-------0-------0---| 
A|--------------------------------------------------------------------------------------------------| 
E|--3---------------------------------------------------------------3---------------3---------------| 
    young...        morn...                                         bay... 


Chorus 

    G               C               G               Em 
e|-------------------------------------------------------------------| 
B|--------3---------------1---------------0---------------0----------| 
G|----0-------0---0---0-------0---0---0-------0---0---0-------0---0--| 
D|------0-------0-------2-------2-------0-------0-------2-------2----| 
A|------------------3------------------------------------------------| 
E|--3-------------------------------3---------------0----------------| 
    Low...          lie...          Fields...   Athenry... 

    G                               D 
e|------------------------3---------------2---------------2----------| 
B|--------3---------------------------3-------3---3---3-------3---3--| 
G|----0-------0---0---0-------0---0-----2-------2-------2-------2----| 
D|------0-------0-------0-------0---0--------------------------------| 
A|-------------------------------------------------------------------| 
E|--3---------------3------------------------------------------------| 
    once...                         fly... 

    G               C               G               D 
e|--------------------------------------------------------2----------| 
B|--------3---------------1---------------0-----------3-------3---3--| 
G|----0-------0---0---0-------0---0---0-------0---0-----2-------2----| 
D|------0-------0-------2-------2-------0-------0---0----------------| 
A|------------------3------------------------------------------------| 
E|--3-------------------------------3--------------------------------| 
    love...         wing...         dreams...       sing... 
   
    D                               G 
e|--------2---------------2-------------------------------3----------| 
B|----3-------3---3---3-------3---3-------3--------------------------| 
G|------2-------2-------2-------2-----0-------0---0---0-------0---0--| 
D|--0-----------------------------------0-------0-------0-------0----| 
A|-------------------------------------------------------------------| 
E|----------------------------------3---------------3----------------| 
    lonely...                  Athenry...    


verse 2 

    G                               C               G               D 
e|------------------------3-----------------------------------------------2---------------2---------| 
B|--------3-------------------------------1---------------0-----------3-------3---3---3-------3---3-| 
G|----0-------0---0---0-------0---0---0-------0---0---0-------0---0-----2-------2-------2-------2---| 
D|------0-------0-------0-------0-------2-------2-------0-------0---0-------------------------------| 
A|----------------------------------3---------------------------------------------------------------| 
E|--3---------------3-------------------------------3-----------------------------------------------| 

    G               C               D                               G               C 
e|----------------------------------------2---------------2-----------------------------------------| 
B|--------3---------------1-----------3-------3---3---3-------3---3-------3---------------1---------| 
G|----0-------0---0---0-------0---0-----2-------2---------------2-----0-------0---0---0-------0---0-| 
D|------0-------0-------2-------2---0-----------------------------------0-------0-------2-------2---| 
A|------------------3---------------------------------------------------------------3---------------| 
E|--3---------------------------------------------------------------3-------------------------------| 

    G               D                                               G 
e|------------------------2---------------2---------------2-------------------------------3---------| 
B|--------0-----------3-------3---3---3-------3---3---3-------3---3-------3-------------------------| 
G|----0-------0---0-----2-------2-------2-------2-------2-------2-----0-------0---0---0-------0---0-| 
D|------0-------0---0---------------0-----------------------------------0-------0-------0-------0---| 
A|--------------------------------------------------------------------------------------------------| 
E|--3---------------------------------------------------------------3---------------3---------------| 


Chorus 

    G               C               G               Em 
e|-------------------------------------------------------------------| 
B|--------3---------------1---------------0---------------0----------| 
G|----0-------0---0---0-------0---0---0-------0---0---0-------0---0--| 
D|------0-------0-------2-------2-------0-------0-------2-------2----| 
A|------------------3------------------------------------------------| 
E|--3-------------------------------3---------------0----------------| 
    Low...          lie...          Fields...   Athenry... 

    G                               D 
e|------------------------3---------------2---------------2----------| 
B|--------3---------------------------3-------3---3---3-------3---3--| 
G|----0-------0---0---0-------0---0-----2-------2-------2-------2----| 
D|------0-------0-------0-------0---0--------------------------------| 
A|-------------------------------------------------------------------| 
E|--3---------------3------------------------------------------------| 
    once...                         fly... 

    G               C               G               D 
e|--------------------------------------------------------2----------| 
B|--------3---------------1---------------0-----------3-------3---3--| 
G|----0-------0---0---0-------0---0---0-------0---0-----2-------2----| 
D|------0-------0-------2-------2-------0-------0---0----------------| 
A|------------------3------------------------------------------------| 
E|--3-------------------------------3--------------------------------| 
    love...         wing...         dreams...       sing... 
   
    D                               G 
e|--------2---------------2-------------------------------3----------| 
B|----3-------3---3---3-------3---3-------3--------------------------| 
G|------2-------2-------2-------2-----0-------0---0---0-------0---0--| 
D|--0-----------------------------------0-------0-------0-------0----| 
A|-------------------------------------------------------------------| 
E|----------------------------------3---------------3----------------| 
    lonely...                  Athenry...    


verse 3 

    G                               C               G               D 
e|------------------------3-----------------------------------------------2---------------2---------| 
B|--------3-------------------------------1---------------0-----------3-------3---3---3-------3---3-| 
G|----0-------0---0---0-------0---0---0-------0---0---0-------0---0-----2-------2-------2-------2---| 
D|------0-------0-------0-------0-------2-------2-------0-------0---0-------------------------------| 
A|----------------------------------3---------------------------------------------------------------| 
E|--3---------------3-------------------------------3-----------------------------------------------| 

    G               C               D                               G               C 
e|----------------------------------------2---------------2-----------------------------------------| 
B|--------3---------------1-----------3-------3---3---3-------3---3-------3---------------1---------| 
G|----0-------0---0---0-------0---0-----2-------2---------------2-----0-------0---0---0-------0---0-| 
D|------0-------0-------2-------2---0-----------------------------------0-------0-------2-------2---| 
A|------------------3---------------------------------------------------------------3---------------| 
E|--3---------------------------------------------------------------3-------------------------------| 

    G               D                                               G 
e|------------------------2---------------2---------------2-------------------------------3---------| 
B|--------0-----------3-------3---3---3-------3---3---3-------3---3-------3-------------------------| 
G|----0-------0---0-----2-------2-------2-------2-------2-------2-----0-------0---0---0-------0---0-| 
D|------0-------0---0---------------0-----------------------------------0-------0-------0-------0---| 
A|--------------------------------------------------------------------------------------------------| 
E|--3---------------------------------------------------------------3---------------3---------------| 


Chorus 

    G               C               G               Em 
e|-------------------------------------------------------------------| 
B|--------3---------------1---------------0---------------0----------| 
G|----0-------0---0---0-------0---0---0-------0---0---0-------0---0--| 
D|------0-------0-------2-------2-------0-------0-------2-------2----| 
A|------------------3------------------------------------------------| 
E|--3-------------------------------3---------------0----------------| 
    Low...          lie...          Fields...   Athenry... 

    G                               D 
e|------------------------3---------------2---------------2----------| 
B|--------3---------------------------3-------3---3---3-------3---3--| 
G|----0-------0---0---0-------0---0-----2-------2-------2-------2----| 
D|------0-------0-------0-------0---0--------------------------------| 
A|-------------------------------------------------------------------| 
E|--3---------------3------------------------------------------------| 
    once...                         fly... 

    G               C               G               D 
e|--------------------------------------------------------2----------| 
B|--------3---------------1---------------0-----------3-------3---3--| 
G|----0-------0---0---0-------0---0---0-------0---0-----2-------2----| 
D|------0-------0-------2-------2-------0-------0---0----------------| 
A|------------------3------------------------------------------------| 
E|--3-------------------------------3--------------------------------| 
    love...         wing...         dreams...       sing... 
   
    D                               G 
e|--------2---------------2-------------------------------3----------| 
B|----3-------3---3---3-------3---3-------3--------------------------| 
G|------2-------2-------2-------2-----0-------0---0---0-------0---0--| 
D|--0-----------------------------------0-------0-------0-------0----| 
A|-------------------------------------------------------------------| 
E|----------------------------------3---------------3----------------| 


Outro  

(last line of final Chorus) 

    D                               G 
e|--------2---------------2-------------------------3----------------| 
B|----3-------3---3---3-------3---3-------3---------3----------------| 
G|------2-------2-------2-------2-----0-------0---0-0----------------| 
D|--0-----------------------------------0-------0---0----------------| 
A|--------------------------------------------------2----------------| 
E|----------------------------------3---------------3----------------| 
    lonely...                  Athenry   
    	
fixar
fixar inscrever-se

enviado porenviado por: educastilho
cifra enviadaCorrigida por: sem correções
logo top cifrasComente
ico música do artistaMúsicas deste artista
ico curtiuCurtiu?
ico destaqueDestaque
Petaxxon Comunicação Online

Cifras.com.br - Melhor e mais completo site de cifras e tablaturas do Brasil Mais de 1 milhão de acordes de músicas cadastradas desde 2003
As informações contidas no nosso site são colaborações de seus usuários e podem conter erros, sendo assim, não nos responsabilizamos sobre nenhuma destas.

close
menos
mais
close
Cor dos acordes:

Cor da letra:

close
Alinhar acordes a direita Alinhar acordes a esquerda Alinhar acordes em baixo Alinhar acordes no topo
close
  Mostrar todos os acordes Esconder acordes muito fáceis Esconder acordes fáceis Esconder acordes intermediários
redimensionar
glossário