Cifras e Tablaturas
Misc Traditional

Misc Traditional

Just A Little Talk With Jesus

Cifras Cancelar Versão de Impressão
cifras

Misc Traditional - Just A Little Talk With Jesus

fixar na tela  
Exibindo: vídeo-aula ver clipes redimensionar

Tom:

  
e|---------------------------------------------------------------------------| 
B|---------------------------------------------------------------------------| 
G|--------------4-4-2---------------------2-4-4-2---2-2----------------------| 
D|-----5-5-5-5--------5-5-2-----5-5-5-5-5---------5--------------------------| 
A|--5-----------------------5-5-------------------------5--------------------| 
E|---------------------------------------------------------------------------| 

e|---------------------------------------------------------------------------| 
B|---------------------------------------------------------------------------| 
G|----------4---4-2-----------------------2-4-4-2-2--------------------------| 
D|--5-5-5-5---------5-5-2-------5-5-5-5-5------------5--5--------------------| 
A|------------------------5--5------------------------------2-5--------------| 
E|--------------------------------------------------------3------------------| 

e|---------------------------------------------------------------------------| 
B|---------------------------------------------------------------------------| 
G|------------------------------------------2-2-2-2-2------------------------| 
D|--5-5-5-5-5-5-2-------5-5-5-5-5-5-2-------------------2-4-5-2--------------| 
A|----------------5-2-5---------------5-2-------------5---------5-2-------2--| 
E|----------------------------------------3-------------------------3-3-5----| 

e|---------------------------------------------------------------------------| 
B|---------------------------------------------------------------------------| 
G|----------------------------------------------------2-4-4-2-2--------------| 
D|--5-5-5-5-5-5-5-5-----5-5-5-5-5-5-5-5-----5-5-5-5-5-----------5------------| 
A|------------------2-------------------2-5-----------------------2-3-3-2----| 
E|--------------------5------------------------------------------------------|  
  

top 5 | misc traditional
top diversos
Outras músicas do artista letras do(a) Misc Traditional
Top cifras »Top artistas »
Petaxxon Comunicação Online
Cifras.com.br - Melhor e mais completo site de cifras e tablaturas do Brasil
Mais de 1 milhão de acordes de músicas cadastradas desde 2003
As informações contidas no nosso site são colaborações de seus usuários e podem conter erros, sendo assim, não nos responsabilizamos sobre nenhuma destas.
close
menos
mais
close
Cor dos acordes:

Cor da letra:

 

save
close
close
 
redimensionar