Cifras e Tablaturas
Misc Traditional

Misc Traditional

Last Dance

Cifras Cancelar Versão de Impressão

Misc Traditional - Last Dance

Tom:

  			This is not my work i have just re-tabbed this from a youtube video by Ebunny as it is easier to play  
on here, 
ALL CREDIT GOES TO EBUNNY 



{Intro} 

e|--0h1-------0-0h1------0-0h1-----|----0-0h1-------0-0h1-------0-0-1--| 
B|------3---3-------3---3------3---|--3-------3---3-------3---3--------| 
G|--------2-----------2----------2-|------------2-----------2----------| 
D|--0------------------------------|------------------0----------------| 
A|---------------------------------|--------------1-3------------------| 
E|---------------------------------|-----------------------------------| 

e|--------0-0h1-------0-0h1-------0|-----------0-1----1---0------| 
B|--3---3-------3---3-------3---3--|-1h3-----3-----1--------1----| 
G|----2-----------2-----------2----|-----2-----------2--2-----0--| 
D|---------------------------------|-0-----0---------------------| 
A|---------------------------------|----------------------3------| 
E|---------------------------------|-------------1---------------| 

e|--0---------0----------0-1-|-----5----3-----3---0---------0--| 
B|------3---3---1-1h3--3-----|-1----------3---------1-----3----| 
G|----0--3-----------2-------|---2---0------3---3-----2--------| 
D|--------3-------0---0------|---------------------------------| 
A|------1-----0--------------|--------------------0-----3------| 
E|-------------------------1-|----------3----------------------| 

e|--0h1-----1-3-5-----5----3----|-3-----------0---1h0------------| 
B|------3----------6---------3--|-----3-----3---1-----3-1---1-3--| 
G|--------2---------7---7------3|---3---3-----------------2------| 
D|--0---------------------------|---------3-------0--------------| 
A|--------------8---------------|-----1-------0------------------| 
E|-------------------------3----|-----------------------------3--| 

e|---------0-----0---0-----------|-----------0-1-----1---0------| 
B|---3-5-6---1-----1-----3---1---|-1h3-----3-----1---------1----| 
G|-3-----------2-------0---0---0-|-----2-----------2---2-----0--| 
D|-------------------------------|-0-----0----------------------| 
A|---------0---------3-----------|-----------------------3------| 
E|-------------------------------|-------------1----------------| 

e|-0------------0-------------0-1-|------5---3-----3---0--------0--| 
B|------3-----3---1-1h3-----3-----|-1----------3---------1----3----| 
G|---0----3-------------2---------|---2----0-----3---3-----2-------| 
D|----------3-------0-----0-------|--------------------------------| 
A|------1-------0-----------------|--------------------0-----3-----| 
E|------------------------------1-|----------3---------------------| 

e|-0h1-----1-3-5------5---3-----|-3------------0---1h0-----------| 
B|-----3----------6---------3---|------3-----3---1-----3-1--1-3--| 
G|-------2----------7---7-----3-|----3---3-----------------2-----| 
D|-0----------------------------|----------3-------0-------------| 
A|-------------8----------------|------1-------0-----------------| 
E|------------------------3-----|-----------------------------3--| 

e|----------0-----0---0---------|------0--1-----5----3-1-0-----------0-1--| 
B|----3-5-6---1-----1-----3---1-|--3--------3-----3--------1---3---3------| 
G|--3-----------2-------0---0---|----2--------2--------------2---3--------| 
D|------------------------------|--0--------------------------------------| 
A|----------0---------3---------|---------1--------------0-----1-------1--| 
E|------------------------------|---------------3-------------------------| 

e|---0---------0----5--10----12-8------6----|-5-5---------5-13--| 
B|-3---3-1--------1-------10--------10------|--8--6---3-6-------| 
G|---------0----------------------7-------8-|-------7-----------| 
D|-----------2---------0--------------------|----------------0--| 
A|-------3-----3----------------8------6----|---5---------------| 
E|------------------------------------------|---------3---------| 

e|-----12-10--------0---5-|-10----12--13----10---17-10-15-13-12--| 
B|-----------10-------1---|----10--------------------------------| 
G|------------------------|----------------------0---------------| 
D|--12---------10-7-------|-0---------8--12----------------------| 
A|-----------0------0-----|----------------------------------0---| 
E|------------------------|--------------------------------------| 

e|-------10----10-12-13-|----12-10-8-----0----------0-----5-6-----| 
B|-13-------11----------|------------8-----1---3------1-----------| 
G|----14----------------|-10-----------9-----2----2-----2------8--| 
D|-------8-----------8--|----------------------0------------------| 
A|----------------------|----------------3------------------6-----| 
E|----------------------|----------8------------------1-----------| 

e|------5---------5-13----12-10-12-------0-----------3--5---3-1-0----| 
B|-10-8---6---3-6------11----------13------1----3--6------3-------1--| 
G|----------7-------0-----------------14-----2----------0------------| 
D|-------------------------------------------------------------------| 
A|------5-----------------------0--------0----------------------0----| 
E|------------3---------------------------------3--------------------| 

e|----0-----0h1-------0-0h1-------0-0h1-----|---0-0h1------0-0h1--------| 
B|--------------3---3-------3---3-------3---|-3------3---3-------3---3--| 
G|--2-------------2-----------2-----------2-|----------2-----------2----| 
D|----------0-------------------------------|----------------0----------| 
A|-----3-0----------------------------------|------------1-3------------| 
E|------------------------------------------|---------------------------| 

e|-0-0-1-------0-0h1-------0-0h1------0-|-0h1-------0-0h1-------0-0h1------| 
B|-------3---3-------3---3------3---3---|-----3---3-------3---3-------3----| 
G|---------2-----------2----------2-----|-------2-----------2-----------2--| 
D|--------------------------------------|----------------------------------| 
A|--------------------------------------|-0--------------------------------| 
E|--------------------------------------|----------------------------------| 

e|---0-0h1-------0-0h1-----0-0 1-------0-0h1-------0-0h1-------0--| 
B|-3-------3---3------3---3------3---3-------3---3-------3---3----| 
G|-----------2----------2----------2-----------2-----------2------| 
D|-----------------0----------------------------------------------| 
A|-------------1-3------------------------------------------------| 
E|----------------------------------------------------------------| 


************************************ 

| h   Hammer-on 
| p   Pull-off 
| /   Slide up 
| \   Slide down 

************************************ 
    	
fixar
fixar inscrever-se

enviado porenviado por: PAULLET3
cifra enviadaCorrigida por: sem correções
logo top cifrasComente
ico música do artistaMúsicas deste artista
ico curtiuCurtiu?
ico destaqueDestaque
Petaxxon Comunicação Online

Cifras.com.br - Melhor e mais completo site de cifras e tablaturas do Brasil Mais de 1 milhão de acordes de músicas cadastradas desde 2003
As informações contidas no nosso site são colaborações de seus usuários e podem conter erros, sendo assim, não nos responsabilizamos sobre nenhuma destas.

close
menos
mais
close
Cor dos acordes:

Cor da letra:

close
Alinhar acordes a direita Alinhar acordes a esquerda Alinhar acordes em baixo Alinhar acordes no topo
close
  Mostrar todos os acordes Esconder acordes muito fáceis Esconder acordes fáceis Esconder acordes intermediários
redimensionar
glossário