Cifras e Tablaturas
Misc Traditional

Misc Traditional

Paddy Whack

Cifras Cancelar Versão de Impressão
cifras

Misc Traditional - Paddy Whack

fixar na tela  
Exibindo: vídeo-aula ver clipes redimensionar

Tom:

  
Verse 
3/4 timing 
e|-----|--------3p2-3-|-0------------|--------0h2-3-|-2--------0-2-| 
B|-----|---0-3--------|---3-1--0-----|---0-3--------|---3-3--3-----| 
G|---0-|-0------------|--------------|-0------------|--------2-----| 
D|-----|--------------|----------2-0-|--------------|-0------------| 
A|-----|--------2-----|-3------------|--------------|--------------| 
E|-----|-3------------|--------3-----|-3------0-----|--------------| 

e|-3h5-3--2p0---|-----0--------|--------------|-------------| 
B|------------3-|-1h3----3p0---|-----0--1---3-|-0-----------| 
G|--------------|------------0-|-0h2------2---|---0-0-0---0-| 
D|--------0-----|--------------|--------0-----|-------------| 
A|-2------------|-0------2-----|--------------|-------------| 
E|--------------|--------------|-3------------|-3-----3-----| 

e|--------3p2-3-|-0------------|--------0h2-3-|-2--------0-2-| 
B|---0-3--------|---3-1--0-----|---0-3--------|---3-3--3-----| 
G|-0------------|--------------|-0------------|--------2-----| 
D|--------------|----------2-0-|--------------|-0------------| 
A|--------2-----|-3------------|--------------|--------------| 
E|-3------------|--------3-----|-3------0-----|--------------| 

e|-3h5-3--2p0---|-----0--------|--------------|-------------| 
B|------------3-|-1h3----3p0---|-----0--1---3-|-0---------0-| 
G|--------------|------------0-|-0h2------2---|---0-0-0-----| 
D|--------0-----|--------------|--------0-----|-------------| 
A|-2------------|-0------2-----|--------------|-------------| 
E|--------------|--------------|-3------------|-3-----3-----| 

e|------------0-|--------------|--------3p2-0-|-2----------0-| 
B|-0---0--1h3---|-3p0----------|---0-3--------|---3-3--1-3---| 
G|---0----------|-----0--2---0-|-0------------|--------------| 
D|--------------|--------0-----|--------------|-0------------| 
A|--------0-----|-2------------|--------------|--------0-----| 
E|-3------------|--------------|-3------0-----|--------------| 

e|-3h7p3--5p2---|-0h3-0--------|--------------|--------------| 
B|------------3-|--------3p0---|-----0--1---3-|-0----------0-| 
G|-0------------|------------0-|-0h2------2---|---0-0--0-----| 
D|--------0-----|--------------|-2------0-----|--------------| 
A|--------------|-3------2-----|--------------|--------------| 
E|--------------|--------------|--------------|-3------3-----| 

e|------------0-|--------------|--------3p2-0-|-2----------0-| 
B|-0---0--1h3---|-3p0----------|---0-3--------|---3-3--1-3---| 
G|---0----------|-----0--2---0-|-0------------|--------------| 
D|--------------|--------0-----|--------------|-0------------| 
A|--------0-----|-2------------|--------------|--------0-----| 
E|-3------------|--------------|-3------0-----|--------------| 

e|-3h7p3--5p2---|-0h3-0--------|--------------|-----------| 
B|------------3-|--------3p0---|-----0--1---3-|-0---------| 
G|-0------------|------------0-|-0h2------2---|---0-0--0--| 
D|--------0-----|--------------|-2------0-----|-----------| 
A|--------------|-3------2-----|--------------|-----------| 
E|--------------|--------------|--------------|-3------3--| 



************************************ 

| h   Hammer-on 
| p   Pull-off 

************************************ 
  

top 5 | misc traditional
top diversos
Outras músicas do artista letras do(a) Misc Traditional
Top cifras »Top artistas »
Petaxxon Comunicação Online
Cifras.com.br - Melhor e mais completo site de cifras e tablaturas do Brasil
Mais de 1 milhão de acordes de músicas cadastradas desde 2003
As informações contidas no nosso site são colaborações de seus usuários e podem conter erros, sendo assim, não nos responsabilizamos sobre nenhuma destas.
close
menos
mais
close
Cor dos acordes:

Cor da letra:

 

save
close
close
 
redimensionar