Cifras e Tablaturas
Misc Traditional

Misc Traditional

Running Around

Cifras Cancelar Versão de Impressão
cifras

Misc Traditional - Running Around

fixar na tela  
Exibindo: vídeo-aula ver clipes redimensionar

Tom:

  
Running Around 

e|-----------------------------------------0-|----------------------------------------0-------| 
B|-----------------------------------------1-|----------------------------------------1-------| 
G|--------------0--------0--2-----0--2--0----|----------------------------------------0-------| 
D|-----0--2--3-----2--3--------3-------------|-3--0--2--3--2-----0--2--0-------0--------------| 
A|--3----------------------------------------|----------------3-------------2-----3-----------| 
E|-------------------------------------------|---------------------------3--------------------| 

e|-----------------------------------------0-|----------------------------------------0-------| 
B|-----------------------------------------1-|----------------------------------------1-------| 
G|--------------0--------0--2-----0--2--0----|----------------------------------------0-------| 
D|-----0--2--3-----2--3--------3-------------|-3--0--2--3--2-----0--2--0-------0--------------| 
A|--3----------------------------------------|----------------3-------------2-----3-----------| 
E|-------------------------------------------|---------------------------3--------------------| 

e|-----------------------------------------0-|------------------------------------------------| 
B|--------1--------------------------------1-|------------------------------------------------| 
G|-----2-----2-----0--2-----------0--------0-|-------------------------------------0--------0-| 
D|--3-----------3--------3--2--3-----2-------|-------------0--2--3--0-----0--2--3-----2--3----| 
A|--------------------------------------3----|----0--2--3--------------3----------------------| 
E|-------------------------------------------|-3----------------------------------------------| 

e|-----------------------------------------0-|------------------------------------------------| 
B|--------1--------------------------------1-|----------------------------------0-------------| 
G|-----2-----2-----0--2-----------0--------0-|-------------------------------0----------------| 
D|--3-----------3--------3--2--3-----2-------|-------------0--2--3--0-----2-------------------| 
A|--------------------------------------3----|----0--2--3--------------3----------------------| 
E|-------------------------------------------|-3----------------------------------------------| 
  

top 5 | misc traditional
top diversos
Outras músicas do artista letras do(a) Misc Traditional
Top cifras »Top artistas »
Petaxxon Comunicação Online
Cifras.com.br - Melhor e mais completo site de cifras e tablaturas do Brasil
Mais de 1 milhão de acordes de músicas cadastradas desde 2003
As informações contidas no nosso site são colaborações de seus usuários e podem conter erros, sendo assim, não nos responsabilizamos sobre nenhuma destas.
close
menos
mais
close
Cor dos acordes:

Cor da letra:

 

save
close
close
 
redimensionar