Cifras e Tablaturas
Misc Traditional

Misc Traditional

Winter Ade

Cifras Cancelar Versão de Impressão

Misc Traditional - Winter Ade

Tom: A

  			
Verse 
   A 
E|----------------|-0--------------|----------------|----------------| 
B|-2----2----3----|----------------|-2----2----0----|----------------| 
G|----------------|----------------|----------------|-2--------------| 
D|------2----2----|------2----2----|------2----2----|------2----2----| 
A|-0--------------|-0--------------|-0--------------|-0--------------| 
E|----------------|----------------|----------------|----------------| 
   Winter    a-     de!              Scheiden  tut    weh.      
   Winter    a-     de!              Scheiden  tut    weh.      
   Winter    a-     de!              Scheiden  tut    weh.      
       
                    E7                                   A 
E|-----------0----|-0-----------------|----------------|-------------------| 
B|-2----3---------|------3-p-2---3----|-0----2----3----|-3----2-p-0---2----| 
G|----------------|-------------------|----------------|-------------------| 
D|------2----2----|------2-------2----|------2----2----|------2-------2----| 
A|-0--------------|-------------------|----------------|-0-----------------| 
E|----------------|-0-----------------|-0--------------|-------------------| 
   Aber      dein   Scheiden          macht, daß mir das Herze        lacht. 
   Gerne     ver-   gess' ich    dein;  kannst immer     ferne        sein. 
   Gehst du  nicht  bald nach Haus,    lacht dich der    Kuckuck      aus. 
    
   A 
E|----------------|-0--------------|----------------|----------------| 
B|-2----2----3----|----------------|-2----2----0----|----------------| 
G|----------------|----------------|----------------|-2--------------| 
D|------2----2----|------2----2----|------2----2----|------2----2----| 
A|-0--------------|-0--------------|-0--------------|-0--------------| 
E|----------------|----------------|----------------|----------------| 
   Winter    a-     de!              Scheiden  tut    weh. 
   Winter    a-     de!              Scheiden  tut    weh.      
   Winter    a-     de!              Scheiden  tut    weh.  
    
************************************           
         
| p    Pull-off 

************************************ 
    	
fixar
fixar inscrever-se

enviado porenviado por: paulantunes
cifra enviadaCorrigida por: sem correções
logo top cifrasComente
ico música do artistaMúsicas deste artista
ico curtiuCurtiu?
ico destaqueDestaque
Petaxxon Comunicação Online

Cifras.com.br - Melhor e mais completo site de cifras e tablaturas do Brasil Mais de 1 milhão de acordes de músicas cadastradas desde 2003
As informações contidas no nosso site são colaborações de seus usuários e podem conter erros, sendo assim, não nos responsabilizamos sobre nenhuma destas.

close
menos
mais
close
Cor dos acordes:

Cor da letra:

close
Alinhar acordes a direita Alinhar acordes a esquerda Alinhar acordes em baixo Alinhar acordes no topo
close
  Mostrar todos os acordes Esconder acordes muito fáceis Esconder acordes fáceis Esconder acordes intermediários
redimensionar
glossário