Cifras e Tablaturas
Misc Your Songs

Misc Your Songs

Close The Distance - Unnamed

Cifras Cancelar Versão de Impressão
cifras

Misc Your Songs - Close The Distance - Unnamed

fixar na tela  
Exibindo: vídeo-aula ver clipes redimensionar
  
Intro 

C#|---------------------------------| 
G#|---------------------------------| 
C#|-5-7-7-5-7-7-5-7-7-5-7-7-8-8-7-7-| x3 
F#|---------------------------------| 
A#|---------------------------------| 
D#|---------------------------------| 


C#|-----------------------------------| 
G#|-----------------------------------| 
C#|-5-7-7-5-7-7-5-7-7-5-7-7-10-10-7-7-| 
F#|-5-7-7-5-7-7-5-7-7-5-7-7-10-10-7-7-| 
A#|-----------------------------------| 
D#|-----------------------------------| 

LET'S GO! 

C#|-5-7-7-5-7-7-5-7-7-5-7-7-8-8-7-7-| 
G#|-5-7-7-5-7-7-5-7-7-5-7-7-8-8-7-7-| 
C#|-5-7-7-5-7-7-5-7-7-5-7-7-8-8-7-7-| x3 
F#|---------------------------------| 
A#|---------------------------------| 
D#|---------------------------------| 
                                                      (drum fill) 
C#|-10-10-10-10-7-7-7-7-8-8-8-8-5-5-5-5-|-3p-------------------------------| 
G#|-10-10-10-10-7-7-7-7-8-8-8-8-5-5-5-5-|-3p-------------------------------| 
C#|-10-10-10-10-7-7-7-7-8-8-8-8-5-5-5-5-|-3p-------------------------------| 
F#|-------------------------------------|----------------------------------| 
A#|-------------------------------------|----------------------------------| 
D#|-------------------------------------|----------------------------------| 


verse 1 

C#|-5-5-5-5-5-5-5-5-5-5-5-10-8-7-8--|-5-5-5-5-5-5-5-5-5-5------3------| 
G#|-----5-------5-------5-10-8-7-8--|-----5-------5-----5------3------| 
C#|-----5-------5-------5-10-8-7-8--|-----5-------5-----5-5-3h-3------| x2 
F#|---------------------------------|---------------------------------| 
A#|---------------------------------|---------------------------------| 
D#|---------------------------------|---------------------------------| 


Pre-Chorus 1 

C#|-10-10-10-10-10-10-10-10-8-8-8-8-9-9-9-9-| 
G#|-10-10-10-10-10-10-10-10-8-8-8-8-9-9-9-9-| 
C#|-10-10-10-10-10-10-10-10-8-8-8-8-9-9-9-9-| 
F#|-----------------------------------------| 
A#|-----------------------------------------| 
D#|-----------------------------------------| 


Chorus 1 

C#|-5-5-5-5-5-5-5-5-5-5-5-5-5-5-8-8-8-8-|-7-7-7-7-7-7-7-7-7-7-7-7-7-7-10-10-10-10-| 
G#|-5-5-5-5-5-5-5-5-5-5-5-5-5-5-8-8-8-8-|-7-7-7-7-7-7-7-7-7-7-7-7-7-7-10-10-10-10-| 
C#|-5-5-5-5-5-5-5-5-5-5-5-5-5-5-8-8-8-8-|-7-7-7-7-7-7-7-7-7-7-7-7-7-7-10-10-10-10-| 
F#|-------------------------------------|-----------------------------------------| 
A#|-------------------------------------|-----------------------------------------| 
D#|-------------------------------------|-----------------------------------------| 

C#|-8-8-8-8-8-8-8-8-8-8-8-8-8-8-8-8-10-10-|-10-10-10-10-10-10-12--10--8--10--8--7--5----| 
G#|-8-8-8-8-8-8-8-8-8-8-8-8-8-8-8-8-10-10-|-10-10-10-10-10-10-12--10--8--10--8--7--5----| 
C#|-8-8-8-8-8-8-8-8-8-8-8-8-8-8-8-8-10-10-|-10-10-10-10-10-10-12--10--8--10--8--7--5----| 
F#|---------------------------------------|---------------------------------------------| 
A#|---------------------------------------|---------------------------------------------| 
D#|---------------------------------------|---------------------------------------------| 


verse 2 

C#|3-5-5-5-5-5-5-5-5-5-5-5-10-8-7-8--|-5-5-5-5-5-5-5-5-5-5------3------| 
G#|------5-------5-------5-10-8-7-8--|-----5-------5-----5------3------| 
C#|------5-------5-------5-10-8-7-8--|-----5-------5-----5-5-3h-3------| x2 
F#|----------------------------------|---------------------------------| 
A#|----------------------------------|---------------------------------| 
D#|----------------------------------|---------------------------------| 


Pre-Chorus 2 

C#|-10-10-10-10-10-10-10-10-8-8-8-8-9-9-9-9-| 
G#|-10-10-10-10-10-10-10-10-8-8-8-8-9-9-9-9-| 
C#|-10-10-10-10-10-10-10-10-8-8-8-8-9-9-9-9-| 
F#|-----------------------------------------| 
A#|-----------------------------------------| 
D#|-----------------------------------------| 


Chorus 2 

C#|-5-5-5-5-5-5-5-5-5-5-5-5-5-5-8-8-8-8-|-7-7-7-7-7-7-7-7-7-7-7-7-7-7-10-10-10-10-| 
G#|-5-5-5-5-5-5-5-5-5-5-5-5-5-5-8-8-8-8-|-7-7-7-7-7-7-7-7-7-7-7-7-7-7-10-10-10-10-| 
C#|-5-5-5-5-5-5-5-5-5-5-5-5-5-5-8-8-8-8-|-7-7-7-7-7-7-7-7-7-7-7-7-7-7-10-10-10-10-| 
F#|-------------------------------------|-----------------------------------------| 
A#|-------------------------------------|-----------------------------------------| 
D#|-------------------------------------|-----------------------------------------| 

C#|-8-8-8-8-8-8-8-8-8-8-8-8-8-8-8-8-10-10-|-10-10-10-10-10-10-12--10--8--10--8--7-| 
G#|-8-8-8-8-8-8-8-8-8-8-8-8-8-8-8-8-10-10-|-10-10-10-10-10-10-12--10--8--10--8--7-| 
C#|-8-8-8-8-8-8-8-8-8-8-8-8-8-8-8-8-10-10-|-10-10-10-10-10-10-12--10--8--10--8--7-| 
F#|---------------------------------------|---------------------------------------| 
A#|---------------------------------------|---------------------------------------| 
D#|---------------------------------------|---------------------------------------| 

C#|-5-5-5-5-5-5-5-5-5-5-5-5-5-5-8-8-8-8-|-7-7-7-7-7-7-7-7-7-7-7-7-7-7-10-10-10-10-| 
G#|-5-5-5-5-5-5-5-5-5-5-5-5-5-5-8-8-8-8-|-7-7-7-7-7-7-7-7-7-7-7-7-7-7-10-10-10-10-| 
C#|-5-5-5-5-5-5-5-5-5-5-5-5-5-5-8-8-8-8-|-7-7-7-7-7-7-7-7-7-7-7-7-7-7-10-10-10-10-| 
F#|-------------------------------------|-----------------------------------------| 
A#|-------------------------------------|-----------------------------------------| 
D#|-------------------------------------|-----------------------------------------| 

C#|-8-8-8-8-8-8-8-8-8-8-8-8-8-8-8-8-10-10-|-10-10-10-10-10-10-12--10--8--10--8--7--8--7--5--3p| 
G#|-8-8-8-8-8-8-8-8-8-8-8-8-8-8-8-8-10-10-|-10-10-10-10-10-10-12--10--8--10--8--7--8--7--5--3p| 
C#|-8-8-8-8-8-8-8-8-8-8-8-8-8-8-8-8-10-10-|-10-10-10-10-10-10-12--10--8--10--8--7--8--7--5--3p| 
F#|---------------------------------------|---------------------------------------------------| 
A#|---------------------------------------|---------------------------------------------------| 
D#|---------------------------------------|---------------------------------------------------| 


Breakdown 

         PM----------------------------------------------------------------                       
C#|------55555---55555---55555-8-8-8-7-7--|-55555---55555---55555-3-3-3-3-| 
G#|------55555---55555---55555-8-8-8-7-7--|-55555---55555---55555-3-3-3-3-| 
C#|------55555---55555---55555-8-8-8-7-7--|-55555---55555---55555-3-3-3-3-| 
F#|---------------------------------------|-------------------------------| 
A#|---------------------------------------|-------------------------------| 
D#|---------------------------------------|-------------------------------| 
           
         PM-----------------------------------------------------| (silence) 
C#|------55555---55555---55555-8-8-8-7-7--|-55555---55555---55555---------| 
G#|------55555---55555---55555-8-8-8-7-7--|-55555---55555---55555---------| 
C#|------55555---55555---55555-8-8-8-7-7--|-55555---55555---55555---------| 
F#|---------------------------------------|-------------------------------| 
A#|---------------------------------------|-------------------------------| 
D#|---------------------------------------|-------------------------------| 

    very loud 
C#|-55555---55555---55555-8-8-8-7-7--|-55555---55555---55555-3-3-3-3-| 
G#|-55555---55555---55555-8-8-8-7-7--|-55555---55555---55555-3-3-3-3-| 
C#|-55555---55555---55555-8-8-8-7-7--|-55555---55555---55555-3-3-3-3-| x2 
F#|----------------------------------|-------------------------------| 
A#|----------------------------------|-------------------------------| 
D#|----------------------------------|-------------------------------| 


Pre-Chorus 3 

C#|-10-10-10-10-10-10-10-10-8-8-8-8-9-9-9-9-| 
G#|-10-10-10-10-10-10-10-10-8-8-8-8-9-9-9-9-| 
C#|-10-10-10-10-10-10-10-10-8-8-8-8-9-9-9-9-| 
F#|-----------------------------------------| 
A#|-----------------------------------------| 
D#|-----------------------------------------| 


Chorus 3 

C#|-5-5-5-5-5-5-5-5-5-5-5-5-5-5-8-8-8-8-|-7-7-7-7-7-7-7-7-7-7-7-7-7-7-10-10-10-10-| 
G#|-5-5-5-5-5-5-5-5-5-5-5-5-5-5-8-8-8-8-|-7-7-7-7-7-7-7-7-7-7-7-7-7-7-10-10-10-10-| 
C#|-5-5-5-5-5-5-5-5-5-5-5-5-5-5-8-8-8-8-|-7-7-7-7-7-7-7-7-7-7-7-7-7-7-10-10-10-10-| 
F#|-------------------------------------|-----------------------------------------| 
A#|-------------------------------------|-----------------------------------------| 
D#|-------------------------------------|-----------------------------------------| 

C#|-8-8-8-8-8-8-8-8-8-8-8-8-8-8-8-8-10-10-|-10-10-10-10-10-10-12--10--8--10--8--7-| 
G#|-8-8-8-8-8-8-8-8-8-8-8-8-8-8-8-8-10-10-|-10-10-10-10-10-10-12--10--8--10--8--7-| 
C#|-8-8-8-8-8-8-8-8-8-8-8-8-8-8-8-8-10-10-|-10-10-10-10-10-10-12--10--8--10--8--7-| 
F#|---------------------------------------|---------------------------------------| 
A#|---------------------------------------|---------------------------------------| 
D#|---------------------------------------|---------------------------------------| 

C#|-5-5-5-5-5-5-5-5-5-5-5-5-5-5-8-8-8-8-|-7-7-7-7-7-7-7-7-7-7-7-7-7-7-10-10-10-10-| 
G#|-5-5-5-5-5-5-5-5-5-5-5-5-5-5-8-8-8-8-|-7-7-7-7-7-7-7-7-7-7-7-7-7-7-10-10-10-10-| 
C#|-5-5-5-5-5-5-5-5-5-5-5-5-5-5-8-8-8-8-|-7-7-7-7-7-7-7-7-7-7-7-7-7-7-10-10-10-10-| 
F#|-------------------------------------|-----------------------------------------| 
A#|-------------------------------------|-----------------------------------------| 
D#|-------------------------------------|-----------------------------------------| 

C#|-8-8-8-8-8-8-8-8-8-8-8-8-8-8-8-8-10-10-|-10-10-10-10-10-10-12--10--8--10--8--7--8--7--5--3p-----335-| 
G#|-8-8-8-8-8-8-8-8-8-8-8-8-8-8-8-8-10-10-|-10-10-10-10-10-10-12--10--8--10--8--7--8--7--5--3p-----335-| 
C#|-8-8-8-8-8-8-8-8-8-8-8-8-8-8-8-8-10-10-|-10-10-10-10-10-10-12--10--8--10--8--7--8--7--5--3p-----335-| 
F#|---------------------------------------|------------------------------------------------------------| 
A#|---------------------------------------|------------------------------------------------------------| 
D#|---------------------------------------|------------------------------------------------------------| 



************************************ 

| p   Pull-off 
| h   Hammer-on 
| PM  Palm mute 
| #    
| (drum fill)  

************************************ 
  

top 5 | misc your songs
top rock'n roll
Outras músicas do artista letras do(a) Misc Your Songs
Top cifras »Top artistas »
Petaxxon Comunicação Online
Cifras.com.br - Melhor e mais completo site de cifras e tablaturas do Brasil
Mais de 1 milhão de acordes de músicas cadastradas desde 2003
As informações contidas no nosso site são colaborações de seus usuários e podem conter erros, sendo assim, não nos responsabilizamos sobre nenhuma destas.
close
menos
mais
close
Cor dos acordes:

Cor da letra:

 

save
close
close
 
redimensionar