Cifras e Tablaturas
Misc Your Songs

Misc Your Songs

Hold On

Cifras Cancelar Versão de Impressão
cifras

Misc Your Songs - Hold On

fixar na tela  
Exibindo: vídeo-aula ver clipes redimensionar

Tom:

  
Intro 
e|---------------------------------------------------------| 
B|---------------------------------------------------------| 
G|---------------------------------------------------------| 
D|---------------------------------------------------------| 
A|-------8-7-8-------7-5-7-------3/5---------------------1-| 
D|-0-0-0-------0-0-0-------0-0-0------3p0-0-5p0-0-6p0-0--1-| 

e|-------------------------------------------------| 
B|-------------------------------------------------| 
G|-------------------------------------------------| 
D|-------------------------------3p4h3----3--------| 
A|-------8-7-5-------4-5-4--------------5---6-4----| 
D|-0-0-0-------0-0-0-------0-0-0----------------2~-|x2 

Verse 
e|----------------------------------------------------------------------| 
B|----------------------------------------------------------------------| 
G|-----------------------------------7/10-10-10-------------------------| 
D|-------------5/7-7-----------------------------------------------7b~--| 
A|-------------3/5-5-6-5-3-5-3-0-3-0-5/8--8--8---------------------7b~--| 
D|-0-0-0-0-0-0-------6-5-3-5-3-0-3-0------------7-8-7-10-8-7-8-7-5------| 
PM * * * * * *                                  * * * ** * * * * *  

Chorus 
e|-----------------------------------------------------------------------------------------------| 
B|-----------------------------------------------------------------------------------------------| 
G|-7/9--9-9-9-9-9-9------------------------------------------------------------------------------| 
D|------------------9-7-6------------------------------------------------5b~-----------------3\\-| 
A|-5/7--7-7-7-7-7-7-------9-7-6--6-6-6-6-6-6-8-8-8-8-5-5-5-5-------3---3-----3-1-0-1-3-1-0-1-1\\-| 
D|-------------------------------6-6-6-6-6-6-8-8-8-8-5-5-5-5-0-3-5---5-------3-1-0-1-3-1-0-1-----| 

breakdown 
e|---------------------------------------| 
B|---------------------------------------| 
G|---------------------------------------| 
D|---------------------------------------| 
A|---------------------------------------| 
D|-0-1-2-4-2-1-0-1-2-4-3-1-0-1-2-4-7-7-7-| 
PM * * * * * * * * * * * * * * * * * * *  

breakdown 2 
e|-----------------------------------------| 
B|-----------------------------------------| 
G|-----------------------------------------| 
D|-----------------------------------------| 
A|-0-1-2-4-2-1-0-1-2-4-3-1-0-1-2-4-7-7-7\\-| 
D|-0-1-2-4-2-1-0-1-2-4-3-1-0-1-2-4-7-7-7\\-| 
PM  


************************************ 

| b   Bend 
| h   Hammer-on 
| p   Pull-off  
| /   Slide up 
| \   Slide down 
| ~   Vibrato 

************************************ 
  

top 5 | misc your songs
top rock'n roll
Outras músicas do artista letras do(a) Misc Your Songs
Top cifras »Top artistas »
Petaxxon Comunicação Online
Cifras.com.br - Melhor e mais completo site de cifras e tablaturas do Brasil
Mais de 1 milhão de acordes de músicas cadastradas desde 2003
As informações contidas no nosso site são colaborações de seus usuários e podem conter erros, sendo assim, não nos responsabilizamos sobre nenhuma destas.
close
menos
mais
close
Cor dos acordes:

Cor da letra:

 

save
close
close
 
redimensionar