Cifras e Tablaturas
Misfits

Misfits

Unexplained

Cifras Cancelar Versão de Impressão
cifras

Misfits - Unexplained

fixar na tela  
Exibindo: vídeo-aula ver clipes redimensionar

Tom:

  
Intro 

e|---------------------------------------------------------------------------| 
B|---------------------------------------------------------------------------| 
G|-6-6-6-6-6-6-6-6-----------------------------------------------------------| 
D|-6-6-6-6-6-6-6-6-----------------------------------------------------------| 
A|-4-4-4-4-4-4-4-4-----------------------------------------------------------| 
E|---------------------------------------------------------------------------| 

e|---------------------------------------------------------------------------| 
B|---------------------------------------------------------------------------| 
G|-13-13-13-13-13-13-13-13---------------------------------------------------| 
D|---------------------------------------------------------------------------| 
A|---------------------------------------------------------------------------| 
E|---------------------------------------------------------------------------| 

0:21 

e|---------------------------------------------------------------------------| 
B|---------------------------------------------------------------------------| 
G|-13-13-13-13-13-13-13-13-13-13-13-13-13-13-13-13-13------------------------| 
D|-13-13-13-13-13-13-13-13-13-13-13-13-13-13-13-13-13------------------------| 
A|-11-11-11-11-11-11-11-11-11-11-11-11-11-11-11-11-11------------------------| 
E|---------------------------------------------------------------------------| 

e|---------------------------------------------------------------------------| 
B|---------------------------------------------------------------------------| 
G|-8-8-8-8-8-8-8-8-8-8-8-8-8-8-8-8-------------------------------------------| 
D|-8-8-8-8-8-8-8-8-8-8-8-8-8-8-8-8-------------------------------------------| 
A|-6-6-6-6-6-6-6-6-6-6-6-6-6-6-6-6-------------------------------------------| 
E|---------------------------------------------------------------------------| 


e|---------------------------------------------------------------------------| 
B|---------------------------------------------------------------------------| 
G|-10-10-10-10-10-10-10-10-10-10-10-10-10-10-10-10---------------------------| 
D|-10-10-10-10-10-10-10-10-10-10-10-10-10-10-10-10---------------------------| 
A|-8--8--8--8--8--8--8--8--8--8--8--8--8--8--8--8----------------------------| 
E|---------------------------------------------------------------------------| 

e|---------------------------------------------------------------------------| 
B|---------------------------------------------------------------------------| 
G|-6-6-6-6-6-6-6-6-6-6-6-6-6-6-6-6-------------------------------------------| 
D|-6-6-6-6-6-6-6-6-6-6-6-6-6-6-6-6-------------------------------------------| 
A|-4-4-4-4-4-4-4-4-4-4-4-4-4-4-4-4-------------------------------------------| 
E|---------------------------------------------------------------------------| 

Verse 

e|---------------------------------------------------------------------------| 
B|---------------------------------------------------------------------------| 
G|---------------------------------8-8-8-8-8-8-8-8-8-8-8-8-8-8-8-8-----------| 
D|-6-6-6-6-6-6-6-6-6-6-6-6-6-6-6-6-8-8-8-8-8-8-8-8-8-8-8-8-8-8-8-8-----------| 
A|-6-6-6-6-6-6-6-6-6-6-6-6-6-6-6-6-6-6-6-6-6-6-6-6-6-6-6-6-6-6-6-6-----------| 
E|-4-4-4-4-4-4-4-4-4-4-4-4-4-4-4-4-------------------------------------------| 

e|---------------------------------------------------------------------------| 
B|---------------------------------------------------------------------------| 
G|-10-10-10-10-10-10-10-10-10-10-10-10-10-10-10-10---------------------------| 
D|-10-10-10-10-10-10-10-10-10-10-10-10-10-10-10-10---------------------------| 
A|-8--8--8--8--8--8--8--8--8--8--8--8--8--8--8--8----------------------------| 
E|---------------------------------------------------------------------------| 

e|---------------------------------------------------------------------------| 
B|---------------------------------------------------------------------------| 
G|-6-6-6-6-6-6-6-6-6-6-6-6-6-6-6-6-------------------------------------------| 
D|-6-6-6-6-6-6-6-6-6-6-6-6-6-6-6-6-------------------------------------------| 
A|-4-4-4-4-4-4-4-4-4-4-4-4-4-4-4-4-------------------------------------------| 
E|---------------------------------------------------------------------------| 

At astounding speed a ship appears 
Upon our radar’s eye 
Four armored birds will soon engage 
Something unidentified 

Evasively it turns on them 
The rest is classified 
Vanishing without a trace 
In the North Dakota sky 

Chorus 

e|---------------------------------------------------------------------------| 
B|---------------------------------------------------------------------------| 
G|---------------------------------8-8-8-8-8-8-8-8-8-8-8-8-8-8-8-8-----------| 
D|-6-6-6-6-6-6-6-6-6-6-6-6-6-6-6-6-8-8-8-8-8-8-8-8-8-8-8-8-8-8-8-8-----------| 
A|-6-6-6-6-6-6-6-6-6-6-6-6-6-6-6-6-6-6-6-6-6-6-6-6-6-6-6-6-6-6-6-6-----------| 
E|-4-4-4-4-4-4-4-4-4-4-4-4-4-4-4-4-------------------------------------------| 

e|---------------------------------------------------------------------------| 
B|---------------------------------------------------------------------------| 
G|-10-10-10-10-10-10-10-10-10-10-10-10-10-10-10-10---------------------------| 
D|-10-10-10-10-10-10-10-10-10-10-10-10-10-10-10-10---------------------------| 
A|-8--8--8--8--8--8--8--8--8--8--8--8--8--8--8--8----------------------------| 
E|---------------------------------------------------------------------------| 

e|---------------------------------------------------------------------------| 
B|---------------------------------------------------------------------------| 
G|-6-6-6-6-6-6-6-6-6-6-6-6-6-6-6-6-------------------------------------------| 
D|-6-6-6-6-6-6-6-6-6-6-6-6-6-6-6-6-------------------------------------------| 
A|-4-4-4-4-4-4-4-4-4-4-4-4-4-4-4-4-------------------------------------------| 
E|---------------------------------------------------------------------------| 


Solo  

e|---------------------------------------------------------------------------| 
B|-16b18--16v-13-13-13h14p13-11-13-11-9-9-9-9-8v--9-9-9/8-8-8/6-6-6-6--------| 
G|---------------------------------------------------------------------------| 
D|---------------------------------------------------------------------------| 
A|---------------------------------------------------------------------------| 
E|---------------------------------------------------------------------------| 

e|---------------------------------------------------------------------------| 
B|---------------------------------------------------------------------------| 
G|--5-5h6p5---5-----------5-6-5-6-8-6-5-6-5-6-8------------------------------| 
D|-6--------6---6-------6----------------------------------------------------| 
A|---------------------------------------------------------------------------| 
E|---------------------------------------------------------------------------| 

e|---------------------------------------------------------------------------| 
B|---------------------------------------------------------------------------| 
G|-----------5---------------5-----------------8v-8v-8v-8v-------------------| 
D|-------6-8---6h8p6---6-8-8---6h8p6---6---8/10------------------------------| 
A|-6-6-8-------------8---------------8---------------------------------------| 
E|---------------------------------------------------------------------------| 



************************************ 

| h  Hammer-on 
| p  Pull-off 
| b  Bend 
| /  Slide up 

************************************ 
  

top 5 | misfits
top
Outras músicas do artista letras do(a) Misfits
Top cifras »Top artistas »
Petaxxon Comunicação Online
Cifras.com.br - Melhor e mais completo site de cifras e tablaturas do Brasil
Mais de 1 milhão de acordes de músicas cadastradas desde 2003
As informações contidas no nosso site são colaborações de seus usuários e podem conter erros, sendo assim, não nos responsabilizamos sobre nenhuma destas.
close
menos
mais
close
Cor dos acordes:

Cor da letra:

 

save
close
close
 
redimensionar