Cifras e Tablaturas
Miss May I

Miss May I

Swallow Your Teeth

Cifras Cancelar Versão de Impressão

Miss May I - Swallow Your Teeth

Tom: Bb

  			
Tuning: Bb F Bb Eb G C 

Riff 1 - 00:04 - 00:20 
- ----------------------------------------------------------------- 
- ----------------------------------------------------------------- 
- -------------------------------------------------------8-7b------ 
- -----------------8-7-----------------------------7-8-10---------- 
- ---------0-0-0-------6-9---------0-0---0-0---0-0-------------0-0- 
- -0-------0-0-0-----------0-------0-0---0-0---0-0-------------0-0- 
PM         .....                   ...............             ... 

- ----------------------------------------------------------------- 
- ---------------------------------------------------------4------- 
- ---------------------------------------------------------7b------ 
- -----------------8-7-----------------------------5-4------------- 
- -0---0-0-0---0-------6-9---------0-0---0-0---0-0-----6-5--------- 
- -0---0-0-0---0-----------0-------0-0---0-0---0-0----------------- 
PM .............                   ............... 

- ----------------------------------------------------------------- 
- ----------------------------------------------------------------- 
- -------------------------------------------------------8-7b------ 
- -----------------8-7-----------------------------7-8-10---------- 
- ---------0-0-0-------6-9---------0-0---0-0---0-0-------------0-0- 
- -0-------0-0-0-----------0-------0-0---0-0---0-0-------------0-0- 
PM         .....                   ...............             ... 

- ----------------------------------------------------------------- 
- ----------------------------------------------------------------- 
- ----------------------------------------------------------------- 
- -----------------8-7--------------------------------------------- 
- -0---0-0-0---0-------6-9---------0-0---0-0---0-0-9-----9/10----10 
- -0---0-0-0---0-----------0-------0-0---0-0---0-0--12p0-----12p0-- 
PM .............                   ............... 

Riff 2 - 00:20 - 00:36 
- ----------------------------------------------------------------- 
- ----------------------------------------------------------------- 
- ----------------------------------------------------------------- 
- ----------------------------------------------------------------- 
- /12--------------------------------------12-------------15-----13 
- ---13p0--0-0-0---0-0-0---0-0-0---0-0-0-----13p0--0-0-0----13p12-- 
PM         ...     ...     ...     ...             ... 

- ----------------------------------------------------------------- 
- ----------------------------------------------------------------- 
- ----------------------------------------------------------------- 
- ----------------------------------------------------------------- 
- p12--------------------------------------12------9-----9/10----10 
- ---13p0--0-0-0---0-0-0---0-0-0---0-0-0-----13p0---12p0-----12p0-- 
PM         ...     ...     ...     ... 

- ----------------------------------------------------------------- 
- ----------------------------------------------------------------- 
- ----------------------------------------------------------------- 
- ----------------------------------------------------------------- 
- /12--------------------------------------12-------------15-----13 
- ---13p0--0-0-0---0-0-0---0-0-0---0-0-0-----13p0--0-0-0----13p12-- 
PM         ...     ...     ...     ...             ... 

- ----------------------------------------------------------------- 
- ----------------------------------------------------------------- 
- ----------------------------------------------------------------- 
- ----------------------------------------------------------------- 
- p12--------------------------------------12------9-----9/10----10 
- ---13p0--0-0-0---0-0-0---0-0-0---0-0-0-----13p0---12p0-----12p0-- 
PM         ...     ...     ...     ... 

Riff 3 - 00:36 - 00:52 
- ----------------------------------------------------------------- 
- ----------------------------------------------------------------- 
- ----------------------------------------------------------------- 
- ----------------------------------------------------------------- 
- /12------0-0-0---0-0-0---0-0-0---0-0-0---12------0-0-0--15-----13 
- ---13p0--0-0-0---0-0-0---0-0-0---0-0-0-----13p0--0-0-0----13p12-- 
PM         .............................           ..... 

- ----------------------------------------------------------------- 
- ----------------------------------------------------------------- 
- ----------------------------------------------------------------- 
- ----------------------------------------------------------------- 
- p12------0-0-0---0-0-0---0-0-0---0-0-0---12------9-----9/10----10 
- ---13p0--0-0-0---0-0-0---0-0-0---0-0-0-----13p0---12p0-----12p0-- 
PM         ............................. 

- ----------------------------------------------------------------- 
- ----------------------------------------------------------------- 
- ----------------------------------------------------------------- 
- ----------------------------------------------------------------- 
- /12------0-0-0---0-0-0---0-0-0---0-0-0---12------0-0-0--15-----13 
- ---13p0--0-0-0---0-0-0---0-0-0---0-0-0-----13p0--0-0-0----13p12-- 
PM         .............................           ..... 

- ----------------------------------------------------------------- 
- ----------------------------------------------------------------- 
- ----------------------------------------------------------------- 
- ----------------------------------------------------------------- 
- p12------0-0-0---0-0-0---0-0-0---0-0-0---12---------------------- 
- ---13p0--0-0-0---0-0-0---0-0-0---0-0-0-----13p0-4-4-3-3-2-2-1-1 
PM         ............................. 


Riff 4, Guitar 1 & 2 - 00:52 - 01:08 - x2 
- ----------------------------------------------------------------- 
- ----------------------------------------------------------------- 
- ----------------------------------------------------------------- 
- -0-------------------------------3------------------------------- 
- -0-------------------------------3------------------------------- 
- -0-------------------------------3------------------------------- 
- 
- ---------------------------------------------------------8------- 
- -10----10----8---10--11--10------10----10----8---10--11---------- 
- ---7-7---7-7---7---7---7---7-7-7---7-7---7-7---7---7---7---7-7-7- 
- ----------------------------------------------------------------- 
- ----------------------------------------------------------------- 
- ----------------------------------------------------------------- 
PM   ...   ...   .   .   .   .....   ...   ...   .   .   .   ..... 


- ----------------------------------------------------------------- 
- ----------------------------------------------------------------- 
- ----------------------------------------------------------------- 
- -7-------------------------------7------------------------------- 
- -8-------------------------------5------------------------------- 
- -8-------------------------------5-----------0-0-3h5-0-7-0-0h2h3- 
PM                                             ...     .   . 
- ---------------------------------------------------------8------- 
- -10----10----8---10--11--10------10----10----8---10--11---------- 
- ---7-7---7-7---7---7---7---7-7-7---7-7---7-7---7---7---7---7-7-7- 
- ----------------------------------------------------------------- 
- ----------------------------------------------------------------- 
- ----------------------------------------------------------------- 
PM   ...   ...   .   .   .   .....   ...   ...   .   .   .   ..... 

Riff 5 - 01:08 - 01:24 
- ----------------------------------------------------------------- 
- ----------------------------------------------------------------- 
- -------------------------------------------------------8-7b------ 
- -----------------8-7-----------------------------7-8-10---------- 
- ---------0-0-0-------6-9---------0-0---0-0---0-0-------------0-0- 
- -0-------0-0-0-----------0-------0-0---0-0---0-0-------------0-0- 
PM         .....                   ...............             ... 

- ----------------------------------------------------------------- 
- ---------------------------------------------------------4------- 
- ---------------------------------------------------------7b------ 
- -----------------8-7-----------------------------5-4------------- 
- -0---0-0-0---0-------6-9---------0-0---0-0---0-0-----6-5--------- 
- -0---0-0-0---0-----------0-------0-0---0-0---0-0----------------- 
PM .............                   ............... 

- ----------------------------------------------------------------- 
- ----------------------------------------------------------------- 
- -------------------------------------------------------8-7b------ 
- -----------------8-7-----------------------------7-8-10---------- 
- ---------0-0-0-------6-9---------0-0---0-0---0-0-------------0-0- 
- -0-------0-0-0-----------0-------0-0---0-0---0-0-------------0-0- 
PM         .....                   ...............             ... 

- ----------------------------------------------------------------- 
- ----------------------------------------------------------------- 
- ----------------------------------------------------------------- 
- -----------------8-7-----------------------------0---0----------- 
- -0---0-0-0---0-------6-9---------0-0---0-0---0-0-0---0----------- 
- -0---0-0-0---0-----------0-------0-0---0-0---0-0-0---0----------- 
PM .............                   ............... 

Riff 6 - 01:24 - 01:40 
- ----------------------------------------------------------------- 
- ----------------------------------------------------------------- 
- ----------------------------------------------------------------- 
- ----------------------------------------------------------------- 
- /12--------------------------------------12-------------15-----13 
- ---13p0--0-0-0---0-0-0---0-0-0---0-0-0-----13p0--0-0-0----13p12-- 
PM         ...     ...     ...     ...             ... 

- ----------------------------------------------------------------- 
- ----------------------------------------------------------------- 
- ----------------------------------------------------------------- 
- ----------------------------------------------------------------- 
- p12--------------------------------------12------9-----9/10----10 
- ---13p0--0-0-0---0-0-0---0-0-0---0-0-0-----13p0---12p0-----12p0-- 
PM         ...     ...     ...     ... 

- ----------------------------------------------------------------- 
- ----------------------------------------------------------------- 
- ----------------------------------------------------------------- 
- ----------------------------------------------------------------- 
- /12--------------------------------------12-------------15-----13 
- ---13p0--0-0-0---0-0-0---0-0-0---0-0-0-----13p0--0-0-0----13p12-- 
PM         ...     ...     ...     ...             ... 

- ----------------------------------------------------------------- 
- ----------------------------------------------------------------- 
- ----------------------------------------------------------------- 
- ----------------------------------------------------------------- 
- p12--------------------------------------12---------------------- 
- ---13p0--0-0-0---0-0-0---0-0-0---0-0-0-----13p0------------------ 
PM         ...     ...     ...     ... 

Riff 3 - 01:40 - 01:56 
Riff 4, Guitar 1 & 2 - 01:56 - 02:12 - x2 


Riff 7, Guitar 1 & 2 - 02:12 - 02:38 
- ----------------------------------------------------------------- 
- ----------------------------------------------------------------- 
- ----------------------------------------------------------------- 
- -0--------------------------------------------------------------- 
- -0--------------------------------------------------------------- 
- -0--------------------------------------------------------------- 
- 
- ----------------------------------------------------------------- 
- ----------------------------------------------------------------- 
- ----------------------------------------------------------------- 
- -7p0-7h8p0-5h7p0-4h5p0-1h4p0-4h5h7p0-7h8p0-5h7p0-4h5p0-8h11p0-7h8 
- ----------------------------------------------------------------- 
- ----------------------------------------------------------------- 


- ----------------------------------------------------------------- 
- ----------------------------------------------------------------- 
- ----------------------------------------------------------------- 
- ----------------------------------------------------------------- 
- ----------------------------------------------------------------- 
- -------------------------------------------------7h8p0-8h11p0-7h8 
- 
- ----------------------------------------------------------------- 
- ----------------------------------------------------------------- 
- ----------------------------------------------------------------- 
- p7p0-7h8p0-5h7p0-4h5p0-1h4p0-4h5h7p0-7h8p0-5h7p0-4h5p0-8h11p0-7h8 
- ----------------------------------------------------------------- 
- ----------------------------------------------------------------- 


- ----------------------------------------------------------------- 
- ----------------------------------------------------------------- 
- ----------------------------------------------------------------- 
- -0--------------------------------------------------------------- 
- -0--------------------------------------------------------------- 
- -0--------------------------------------------------------------- 
- 
- ----------------------------------------------------------------- 
- ----------------------------------------------------------------- 
- ----------------------------------------------------------------- 
- -7p0-7h8p0-5h7p0-4h5p0-1h4p0-4h5h7p0-7h8p0-5h7p0-4h5p0-8h11p0-7h8 
- ----------------------------------------------------------------- 
- ----------------------------------------------------------------- 


- ----------------------------------------------------------------- 
- ----------------------------------------------------------------- 
- ----------------------------------------------------------------- 
- ----------------------------------------------------------------- 
- ----------------------------------------------------------------- 
- -------------------------------------------------7h8p0-8h11p0-7h8 
- 
- ----------------------------------------------------------------- 
- ----------------------------------------------------------------- 
- ----------------------------------------------------------------- 
- p7p0-7h8p0-5h7p0-4h5p0-1h4p0-4h5h7p0-7h8p0-5h7p0-4h5p0-8h11p0-7h8 
- ----------------------------------------------------------------- 
- ----------------------------------------------------------------- 


- ----------------------------------------------------------------- 
- ----------------------------------------------------------------- 
- ----------------------------------------------------------------- 
- -0--------------------------------------------------------------- 
- -0--------------------------------------------------------------- 
- -0--------------------------------------------------------------- 
- 
- ----------------------------------------------------------------- 
- ----------------------------------------------------------------- 
- ----------------------------------------------------------------- 
- -7p0-7h8p0-5h7p0-4h5p0-1h4p0-4h5h7p0-7h8p0-5h7p0-4h5p0-8h11p0-7h8 
- ----------------------------------------------------------------- 
- ----------------------------------------------------------------- 


- ------------------------------------------------------------------------------------------------- 
- ------------------------------------------------------------------------------------------------- 
- ------------------------------------------------------------------------------------------------- 
- ------------------------------------------------------------------------------------------------- 
- ------------------------------------------------------------------------------------------------- 
- -------------------------------------------------7h8p0-8h11p0-7h8-------------------------------- 
- 
- ------------------------------------------------------------------------------------------------- 
- ------------------------------------------------------------------------------------------------- 
- ------------------------------------------------------------------------------------------------- 
- p7p0-7h8p0-5h7p0-4h5p0-1h4p0-4h5h7p0-7h8p0-5h7p0-4h5p0-8h11p0-7h8-------------------------------- 
- ------------------------------------------------------------------------------------------------- 
- ------------------------------------------------------------------------------------------------- 


Riff 8a - 02:38 - 03:10 
- ----------------------------------------------------------------- 
- ----------------------------------------------------------------- 
- ----------------------------------------------------------------- 
- ----------------------------------------------------------------- 
- -0-----0-0---0-----------0-0---0-0-----0-0-0-0-----------1---1-1- 
- -0-----0-0---0-----------0-0---0-0-----0-0-0-0-----------1---1-1- 
PM ............................................................... 

- ----------------------------------------------------------------- 
- ----------------------------------------------------------------- 
- ----------------------------------------------------------------- 
- ----------------------------------------------------------------- 
- -0-----0-0---0-----------0-0---0-0-----0-0-0-0------------------- 
- -0-----0-0---0-----------0-0---0-0-----0-0-0-0----------11p0h7h8- 
PM ............................................. 

- ----------------------------------------------------------------- 
- ----------------------------------------------------------------- 
- ----------------------------------------------------------------- 
- ----------------------------------------------------------------- 
- -0-----0-0---0-----------0-0---0-0-----0-0-0-0-----------1---1-1- 
- -0-----0-0---0-----------0-0---0-0-----0-0-0-0-----------1---1-1- 
PM ............................................................... 

- ----------------------------------------------------------------- 
- ----------------------------------------------------------------- 
- ----------------------------------------------------------------- 
- ----------------------------------------------------------------- 
- -0-----0-0---0-----------0-0---0-0-----0-0-0-0------------------- 
- -0-----0-0---0-----------0-0---0-0-----0-0-0-0----------11p0h7h8- 
PM ............................................. 

- ----------------------------------------------------------------- 
- ----------------------------------------------------------------- 
- ----------------------------------------------------------------- 
- ----------------------------------------------------------------- 
- -0-----0-0---0-----------0-0---0-0-----0-0-0-0-----------1---1-1- 
- -0-----0-0---0-----------0-0---0-0-----0-0-0-0-----------1---1-1- 
PM ............................................................... 

- ----------------------------------------------------------------- 
- ----------------------------------------------------------------- 
- ----------------------------------------------------------------- 
- ----------------------------------------------------------------- 
- -0-----0-0---0-----------0-0---0-0-----0-0-0-0------------------- 
- -0-----0-0---0-----------0-0---0-0-----0-0-0-0----------11p0h7h8- 
PM ............................................. 

- ----------------------------------------------------------------- 
- ----------------------------------------------------------------- 
- ----------------------------------------------------------------- 
- ----------------------------------------------------------------- 
- -0-----0-0---0-----------0-0---0-0-----0-0-0-0-----------1---1-1- 
- -0-----0-0---0-----------0-0---0-0-----0-0-0-0-----------1---1-1- 
PM ............................................................... 

- ----------------------------------------------------------------- 
- ----------------------------------------------------------------- 
- ----------------------------------------------------------------- 
- ----------------------------------------------------------------- 
- -0-----0-0---0-----------0-0---0-0-----0-0-0-0------------------- 
- -0-----0-0---0-----------0-0---0-0-----0-0-0-0------------------- 
PM ............................................. 

Riff 8b - 02:38 - 02:54 - x4 
- ----------------------------------------------------------------- 
- ----------------------------------------------------------------- 
- ----------------------------------------------------------------- 
- -7p0-7h8p0-5h7p0-4h5p0-1h4p0-4h5h7p0-7h8p0-5h7p0-4h5p0-8h11p0-7h8 
- ----------------------------------------------------------------- 
- ----------------------------------------------------------------- 

- ----------------------------------------------------------------- 
- ----------------------------------------------------------------- 
- ----------------------------------------------------------------- 
- p7p0-7h8p0-5h7p0-4h5p0-1h4p0-4h5h7p0-7h8p0-5h7p0-4h5p0-8h11p0-7h8 
- ----------------------------------------------------------------- 
- ----------------------------------------------------------------- 


Riff 8c, Guitar 1 & 2 - 02:54 - 03:10 
- ----------------------------------------------------------------------------------------------- 
- ----------------------------------------------------------------------------------------------- 
- ----------------------------------------------------------------------------------------------- 
- -16p0-16h17p0-13h16p0-12h13p0-10h12p0-12h13p16p0-16h17p0-13h16p0-12h13p0-10h12p0-17h20p0-16h17- 
- ----------------------------------------------------------------------------------------------- 
- ----------------------------------------------------------------------------------------------- 
- 
- ----------------------------------------------------------------------------------------------- 
- ----------------------------------------------------------------------------------------------- 
- ----------------------------------------------------------------------------------------------- 
- -19p0-19h20p0-17h19p0-16h17p0-13h16p0-16h17p19p0-19h20p0-17h19p0-16h17p0-13h16p0-20h23p0-19h20- 
- ----------------------------------------------------------------------------------------------- 
- ----------------------------------------------------------------------------------------------- 


- ----------------------------------------------------------------------------------------------- 
- ----------------------------------------------------------------------------------------------- 
- ----------------------------------------------------------------------------------------------- 
- -16p0-16h17p0-13h16p0-12h13p0-10h12p0-12h13p16p0-16h17p0-13h16p0-12h13p0-10h12p0-17h20p0-16h17- 
- ----------------------------------------------------------------------------------------------- 
- ----------------------------------------------------------------------------------------------- 
- 
- ----------------------------------------------------------------------------------------------- 
- ----------------------------------------------------------------------------------------------- 
- ----------------------------------------------------------------------------------------------- 
- -19p0-19h20p0-17h19p0-16h17p0-13h16p0-16h17p19p0-19h20p0-17h19p0-16h17p0-13h16p0-20h23p0-19h20- 
- ----------------------------------------------------------------------------------------------- 
- ----------------------------------------------------------------------------------------------- 


- ----------------------------------------------------------------------------------------------- 
- ----------------------------------------------------------------------------------------------- 
- ----------------------------------------------------------------------------------------------- 
- -16p0-16h17p0-13h16p0-12h13p0-10h12p0-12h13p16p0-16h17p0-13h16p0-12h13p0-10h12p0-17h20p0-16h17- 
- ----------------------------------------------------------------------------------------------- 
- ----------------------------------------------------------------------------------------------- 
- 
- ----------------------------------------------------------------------------------------------- 
- ----------------------------------------------------------------------------------------------- 
- ----------------------------------------------------------------------------------------------- 
- -19p0-19h20p0-17h19p0-16h17p0-13h16p0-16h17p19p0-19h20p0-17h19p0-16h17p0-13h16p0-20h23p0-19h20- 
- ----------------------------------------------------------------------------------------------- 
- ----------------------------------------------------------------------------------------------- 


- ------------------------------------------------------------------------------------ 
- ------------------------------------------------------------------------------------ 
- ------------------------------------------------------------------------------------ 
- -16p0-16h17p0-13h16p0-12h13p0-10h12p0-12h13p16p0-16h17p0-13h16p0-19p0-0-19p0-0-19p0- 
- ------------------------------------------------------------------------------------ 
- ------------------------------------------------------------------------------------ 
- 
- ------------------------------------------------------------------------------------ 
- ------------------------------------------------------------------------------------ 
- ------------------------------------------------------------------------------------ 
- -19p0-19h20p0-17h19p0-16h17p0-13h16p0-16h17p19p0-19h20p0-17h19p0-19p0-0-19p0-0-19p0- 
- ------------------------------------------------------------------------------------ 
- ------------------------------------------------------------------------------------ 


Riff 4, Guitar 1 & 2 - 03:10 - 03:42 - x4 

Riff 9 - 03:42 - 03:58 
- ----------------------------------------------------------------- 
- ----------------------------------------------------------------- 
- ----------------------------------------------------------------- 
- -0-------------------------------3------------------------------- 
- -0-------------------------------3------------------------------- 
- -0-------------------------------3------------------------------- 

- ----------------------------------------------------------------- 
- ----------------------------------------------------------------- 
- ----------------------------------------------------------------- 
- -7-------------------------------7------------------------------- 
- -8-------------------------------5------------------------------- 
- -8-------------------------------5-----------0-0-3h5-0-7-0-0h2h3- 
PM                                             ...     .   . 

- ----------------------------------------------------------------- 
- ----------------------------------------------------------------- 
- ----------------------------------------------------------------- 
- -0-------------------------------3------------------------------- 
- -0-------------------------------3------------------------------- 
- -0-------------------------------3------------------------------- 

- ------------------------------------------------------------------------------------------------- 
- ------------------------------------------------------------------------------------------------- 
- ------------------------------------------------------------------------------------------------- 
- -7-------------------------------7-------------------------------0------------------------------- 
- -8-------------------------------5-------------------------------0------------------------------- 
- -8-------------------------------5-----------0-0-3h5-0-7-0-0h2h3-0------------------------------- 
PM                                             ...     .   . 

Symbols 

PM... Palm Mute notes with (...) under them 
AP... Alternate Pick notes with (...) under them 
h     Hammer On 
p     Pull Off 
    Harmonic 
/     Slide Up 
\     Slide Down 
x     Dead Note 
b     Bend 
hb    Hold Bend 
pb    Pre-Bend 
r     Release Bend 
(x )  Play Notes x amount of times 
~     Let Ring 
\\\   Pick Slide Down 
///   Pick Slide Up 
/ 3 \ Notes are triplets (3 notes in the space of two) 
w\    Whammy Bar Down 
w/    Whammy Bar Up 
wh    Whammy Bar Hold 
T     Right Hand Tap 
L     Left Hand Tap 

:) 
    	
fixar
fixar inscrever-se

enviado porenviado por: alyslima
cifra enviadaCorrigida por: sem correções
logo top cifrasComente
ico música do artistaMúsicas deste artista
ico curtiuCurtiu?
ico destaqueDestaque
Petaxxon Comunicação Online

Cifras.com.br - Melhor e mais completo site de cifras e tablaturas do Brasil Mais de 1 milhão de acordes de músicas cadastradas desde 2003
As informações contidas no nosso site são colaborações de seus usuários e podem conter erros, sendo assim, não nos responsabilizamos sobre nenhuma destas.

close
menos
mais
close
Cor dos acordes:

Cor da letra:

close
Alinhar acordes a direita Alinhar acordes a esquerda Alinhar acordes em baixo Alinhar acordes no topo
close
  Mostrar todos os acordes Esconder acordes muito fáceis Esconder acordes fáceis Esconder acordes intermediários
redimensionar
glossário