Cifras e Tablaturas
Modern Baseball

Modern Baseball

And Beyond

Cifras Cancelar Versão de Impressão

Modern Baseball - And Beyond

Tom:

  			 
Intro/Verse 
e|----------3-----------------------3-------------|----------3-----------------------3--------------| 
B|----0-----------0-----------0-----------0-----2-|----0-----------0-----------0-----------0-----2--| 
G|-------2-----------2-----------2-----------2----|-------2-----------2-----------2-----------2-----| 
D|------------------------------------------------|-------------------------------------------------| 
A|------------------------------------------------|-------------------------------------------------| 
E|-3--------------------3-------------------------|-3--------------------3--------------------------| 
                                                                                                       x2 
e|----------3-----------------------3-------------|----------3-----------------------3--------------| 
B|----0-----------0-----------0-----------0-----2-|----0-----------0-----------0-----------0-----2--| 
G|-------2-----------2-----------2-----------2----|-------2-----------2-----------2-----------2-----| 
D|------------------------------------------------|-------------------------------------------------| 
A|------------------------------------------------|-3--------------------3--------------------------| 
E|-0--------------------0-------------------------|-------------------------------------------------| 

Break 
Guitar 1 
e|----------3-----------------------3-------------|----------3-----------------------3--------------| 
B|----0-----------0-----------0-----------0-----2-|----0-----------0-----------0-----------0-----2--| 
G|-------2-----------2-----------2-----------2----|-------2-----------2-----------2-----------2-----| 
D|------------------------------------------------|-------------------------------------------------| 
A|------------------------------------------------|-------------------------------------------------| 
E|-3--------------------3-------------------------|-3--------------------3--------------------------| 
                                                                                                        x2 
e|----------3-----------------------3-------------|----------3-----------------------3--------------| 
B|----0-----------0-----------0-----------0-----2-|----0-----------0-----------0-----------0-----2--| 
G|-------2-----------2-----------2-----------2----|-------2-----------2-----------2-----------2-----| 
D|------------------------------------------------|-------------------------------------------------| 
A|------------------------------------------------|-3--------------------3--------------------------| 
E|-0--------------------0-------------------------|-------------------------------------------------| 

Break 
Guitar 2 
e|------------------------------------------------|-------------------------------------------------| 
B|-------------------------0----------------------|-------------------------------------------------| 
G|-------2--4--2--0--------------0--------0-------|-------------------------------------0-----------| 
D|-------------------0--2--------------2----------|-------------0-----------------0-----------------| 
A|------------------------------------------------|-------------------------0--2--------------------| 
E|------------------------------------------------|-------------------------------------------------| 
                                                                                                        x2 
e|------------------------------------------------|-------------------------------------------------| 
B|-------------------------0----------------------|----------------------------------0--------------| 
G|-------2--4--2--0--------------0--------0-------|----------0--------------------2-----------------| 
D|-------------------0--2--------------2----------|-------0-----------------------------------------| 
A|----------------------------------------------0-|-2--3--------------------3-----------------------| 
E|------------------------------------------------|-------------------------------------------------| 


Verse 
Guitar 1 
e|----------3-----------------------3-------------|----------3-----------------------3--------------| 
B|----0-----------0-----------0-----------0-----2-|----0-----------0-----------0-----------0-----2--| 
G|-------2-----------2-----------2-----------2----|-------2-----------2-----------2-----------2-----| 
D|------------------------------------------------|-------------------------------------------------| 
A|------------------------------------------------|-------------------------------------------------| 
E|-3--------------------3-------------------------|-3--------------------3--------------------------| 
                                                                                                       x2 
e|----------3-----------------------3-------------|----------3-----------------------3--------------| 
B|----0-----------0-----------0-----------0-----2-|----0-----------0-----------0-----------0-----2--| 
G|-------2-----------2-----------2-----------2----|-------2-----------2-----------2-----------2-----| 
D|------------------------------------------------|-------------------------------------------------| 
A|------------------------------------------------|-3--------------------3--------------------------| 
E|-0--------------------0-------------------------|-------------------------------------------------| 

Verse 
Guitar 2 
e|------------------------------------------------|-------------------------------------------------| 
B|-------------------------0----------------------|-------------------------------------------------| 
G|-------2--4--2--0--------------0--------0-------|-------------------------------------0-----------| 
D|-------------------0--2--------------2----------|-------------0-----------------0-----------------| 
A|------------------------------------------------|-------------------------0--2--------------------| 
E|------------------------------------------------|-------------------------------------------------| 
                                                                                                        x2 
e|------------------------------------------------|-------------------------------------------------| 
B|-------------------------0----------------------|----------------------------------0--------------| 
G|-------2--4--2--0--------------0--------0-------|----------0--------------------2-----------------| 
D|-------------------0--2--------------2----------|-------0-----------------------------------------| 
A|----------------------------------------------0-|-2--3--------------------3-----------------------| 
E|------------------------------------------------|-------------------------------------------------| 

Chorus 
Guitar 1 
e|------------------------------------------------|-------------------------------------------------| 
B|------------------------------------------------|-------------------------------------------------| 
G|------------------------------------------------|-------------------------------------------------| 
D|-5-----------5-----------5-----------5----------|-5-----------5-----------5-----------5-----------| 
A|-5-----------5-----------5-----------5----------|-5-----------5-----------5-----------5-----------| 
E|-3-----------3-----------3-----------3----------|-3-----------3-----------3-----------3-----------| 
                                                                                                       x2 
e|------------------------------------------------|-------------------------------------------------| 
B|------------------------------------------------|-------------------------------------------------| 
G|------------------------------------------------|-5-----------5-----------5-----------5-----------| 
D|-2-----------2-----------2-----------2----------|-5-----------5-----------5-----------5-----------| 
A|-2-----------2-----------2-----------2----------|-3-----------3-----------3-----------3-----------| 
E|-0-----------0-----------0-----------0----------|-------------------------------------------------| 

Chorus 
Guitar 2 
e|------------------------------------------------|-------------------------------------------------| 
B|-------------------------0----------------------|-------------------------------------------------| 
G|-------2--4--2--0--------------0--------0-------|-------------------------------------0-----------| 
D|-------------------0--2--------------2----------|-------------0-----------------0-----------------| 
A|------------------------------------------------|-------------------------0--2--------------------| 
E|------------------------------------------------|-------------------------------------------------| 
                                                                                                        x2 
e|------------------------------------------------|-------------------------------------------------| 
B|-------------------------0----------------------|----------------------------------0--------------| 
G|-------2--4--2--0--------------0--------0-------|----------0--------------------2-----------------| 
D|-------------------0--2--------------2----------|-------0-----------------------------------------| 
A|----------------------------------------------0-|-2--3--------------------3-----------------------| 
E|------------------------------------------------|-------------------------------------------------| 
    	
fixar
fixar inscrever-se

enviado porenviado por: victborges
cifra enviadaCorrigida por: sem correções
logo top cifrasComente
ico música do artistaMúsicas deste artista
ico curtiuCurtiu?
ico destaqueDestaque
Petaxxon Comunicação Online

Cifras.com.br - Melhor e mais completo site de cifras e tablaturas do Brasil Mais de 1 milhão de acordes de músicas cadastradas desde 2003
As informações contidas no nosso site são colaborações de seus usuários e podem conter erros, sendo assim, não nos responsabilizamos sobre nenhuma destas.

close
menos
mais
close
Cor dos acordes:

Cor da letra:

close
Alinhar acordes a direita Alinhar acordes a esquerda Alinhar acordes em baixo Alinhar acordes no topo
close
  Mostrar todos os acordes Esconder acordes muito fáceis Esconder acordes fáceis Esconder acordes intermediários
redimensionar
glossário