Cifras e Tablaturas
Cifras Cancelar Versão de Impressão
cifras

Modern Baseball - Short

fixar na tela  
Exibindo: vídeo-aula ver clipes redimensionar

Tom:

  
Verses 
eb |--------------------------------------------------------------------------------------------------------| 
Bb |--------------------------------------------------------------------------------------------------------| 
Gb |-----4-----4-----4-----4-----4-----4-----4-----4-----4-----4-----4-----4-----4-----4-----4-----4-----4--| 
Db |-----6-----6-----6-----6-----6-----6-----6-----6-----6-----6-----6-----6-----6-----6-----6-----6-----6--| 
Ab |--7-----------------------7-----------7-----6-----4-----------------------------------------------------| 
Eb |--------------------------------------------------------------------------------5-----------5-----4-----| 

Strum this chord at the end of every Verse: (from low to high) x02100 

Chorus 
eb |--------------------------------4--4-----4-4-4-4--4-----4-4-4-4--| 
Bb |--0--0-----0-0-0-0--0-----0-0-0-5--5-----5-5-5-5--5-----5-5-5-5--| 
Gb |--1--1-----1-1-1-1--1-----1-1-1-6--6-----6-6-6-6--6-----6-6-6-6--| 
Db |--2--2-----2-2-2-2--2-----2-2-2-6--6-----6-6-6-6--6-----6-6-6-6--| 
Ab |--2--2-----2-2-2-2--2-----2-2-2-4--4-----4-4-4-4--4-----4-4-4-4--| 
Eb |--0--0-----0-0-0-0--0-----0-0-0----------------------------------| 

eb |-----------------------------------------------------------------| 
Bb |--0--0-----0-0-0-0--0-----0-0-0-0--0-----0-0-0-0--0-----0-0-0-0--| 
Gb |--1--1-----1-1-1-1--1-----1-1-1-1--1-----1-1-1-1--1-----1-1-1-1--| 
Db |--2--2-----2-2-2-2--2-----2-2-2-2--2-----2-2-2-2--2-----2-2-2-2--| 
Ab |--0--0-----0-0-0-0--0-----0-0-0-0--0-----0-0-0-0--0-----0-0-0-0--| 
Eb |-----------------------------------------------------------------| 
  

top 5 | modern baseball
top rock'n roll
Outras músicas do artista letras do(a) Modern Baseball
Top cifras »Top artistas »
Petaxxon Comunicação Online
Cifras.com.br - Melhor e mais completo site de cifras e tablaturas do Brasil
Mais de 1 milhão de acordes de músicas cadastradas desde 2003
As informações contidas no nosso site são colaborações de seus usuários e podem conter erros, sendo assim, não nos responsabilizamos sobre nenhuma destas.
close
menos
mais
close
Cor dos acordes:

Cor da letra:

 

save
close
close
 
redimensionar