Cifras e Tablaturas
Mogwai

Mogwai

Hound Of Winter

Cifras Cancelar Versão de Impressão
cifras

Mogwai - Hound Of Winter

fixar na tela  
Exibindo: vídeo-aula ver clipes redimensionar
  
Part A 

Guitar 1: 

  1 + 2 + 3 + 4 + |1 + 2 + 3 + 4 + |1 + 2 + 3 + 4 + |1 + 2 + 3 + 4 + | 
e|--------4-------|--------4-------|----------------|----------------| 
B|--------4-------|--------4-------|----------------|----------------| 
G|----------------|----------------|----------------|----------------| 
D|----3-------6---|----------------|----3-----------|----3-----------| 
A|4---------------|----3-----------|1---------------|1---------------| 
E|----------------|4---------------|----------------|----------------|   

Guitar 2: 

  1 + 2 + 3 + 4 + |1 + 2 + 3 + 4 + |1 + 2 + 3 + 4 + |1 + 2 + 3 + 4 + | 
e|----------------|--------------4-|--------1-----1-|--------1-----1-| 
B|----------------|1-------------4-|--------2-----2-|--------2-----2-| 
G|----------------|1---------------|------------3---|------------3---| 
D|----------------|------------6---|----------------|----------------| 
A|--------------1-|----------------|----------------|----------------| 
E|----------------|----------------|----------------|----------------| 


Part B 

Guitar 1: 

  1 + 2 + 3 + 4 + |1 + 2 + 3 + 4 + |1 + 2 + 3 + 4 + |1 + 2 + 3 + 4 + | 
e|--------4-------|--------4-------|----------------|----------------| 
B|--------4-------|--------4-------|----------------|----------------| 
G|----------------|----------------|----------------|----------------| 
D|----3-----------|----------------|----3-----------|----3-----------| 
A|4---------------|----3-----------|1---------------|1---------------| 
E|----------------|4---------------|----------------|----------------| 

Guitar 2: 

  1 + 2 + 3 + 4 + |1 + 2 + 3 + 4 + |1 + 2 + 3 + 4 + |1 + 2 + 3 + 4 + | 
e|--------------4-|--------------4-|--------1-----1-|--------1-----1-| 
B|--------------4-|--------------4-|--------2-----2-|--------2-----2-| 
G|----------------|----------------|------------3---|------------3---| 
D|------------6---|------------6---|----------------|----------------| 
A|----------------|----------------|----------------|----------------| 
E|----------------|----------------|----------------|----------------| 


Part C 

Guitar 1: 

  1 + 2 + 3 + 4 + |1 + 2 + 3 + 4 + |1 + 2 + 3 + 4 + |1 + 2 + 3 + 4 + | 
e|--------4-------|--------4-------|----------------|------1-------1-| 
B|--------4-------|--------4-------|----------------|2-4---2-4-2---2-| 
G|----------------|----------------|----------------|----3-------3---| x6 
D|----3-----------|----------------|----3-----------|----------------| 
A|4---------------|----3-----------|1---------------|----------------| 
E|----------------|4---------------|----------------|----------------| 

Guitar 2: 

  1 + 2 + 3 + 4 + |1 + 2 + 3 + 4 + |1 + 2 + 3 + 4 + |1 + 2 + 3 + 4 + | 
e|--------------4-|--------------4-|--------1-----1-|----------------| 
B|--------------4-|--------------4-|--------2-----2-|----------------| 
G|----------------|----------------|----------------|----------------| x6 
D|------------6---|------------6---|----------------|----------------| 
A|----------------|----------------|----------------|----------------| 
E|----------------|----------------|----------------|----------------| 


Part D 

Guitar 1: 

  1 + 2 + 3 + 4 + |1 + 2 + 3 + 4 + |1 + 2 + 3 + 4 + |1 + 2 + 3 + 4 + | 
e|----------------|----------------|----------------|----------------| 
B|----------------|----------------|----------------|----------------| 
G|----------------|----------------|----------------|----------------| x4 
D|----8-------6---|----8-------6---|----11----------|----10------6---| 
A|9---------------|9---------------|9---------------|9---------------| 
E|----------------|----------------|----------------|----------------| 

Guitar 2: 

  1 + 2 + 3 + 4 + |1 + 2 + 3 + 4 + |1 + 2 + 3 + 4 + |1 + 2 + 3 + 4 + | 
e|--------9-----9-|--------9-----9-|----------------|--------11----11| 
B|--------9-----9-|--------9-----9-|--------6-----6-|--------9-----9-| 
G|----------------|----------------|--------6-----6-|----------------| x4 
D|----------------|----------------|----------------|----------------| 
A|----------------|----------------|----------------|----------------| 
E|----------------|----------------|----------------|----------------| 


Part C 

Guitar 1: 

  1 + 2 + 3 + 4 + |1 + 2 + 3 + 4 + |1 + 2 + 3 + 4 + |1 + 2 + 3 + 4 + | 
e|--------4-------|--------4-------|----------------|------1-------1-| 
B|--------4-------|--------4-------|----------------|2-4---2-4-2---2-| 
G|----------------|----------------|----------------|----3-------3---| x4 
D|----3-----------|----------------|----3-----------|----------------| 
A|4---------------|----3-----------|1---------------|----------------| 
E|----------------|4---------------|----------------|----------------| 

Guitar 2: 

  1 + 2 + 3 + 4 + |1 + 2 + 3 + 4 + |1 + 2 + 3 + 4 + |1 + 2 + 3 + 4 + | 
e|--------------4-|--------------4-|--------1-----1-|----------------| 
B|--------------4-|--------------4-|--------2-----2-|----------------| 
G|----------------|----------------|----------------|----------------| x4 
D|------------6---|------------6---|----------------|----------------| 
A|----------------|----------------|----------------|----------------| 
E|----------------|----------------|----------------|----------------| 


Part D 

Guitar 1: 

  1 + 2 + 3 + 4 + |1 + 2 + 3 + 4 + |1 + 2 + 3 + 4 + |1 + 2 + 3 + 4 + | 
e|----------------|----------------|----------------|----------------| 
B|----------------|----------------|----------------|----------------| 
G|----------------|----------------|----------------|----------------| x4 
D|----8-------6---|----8-------6---|----11----------|----10------6---| 
A|9---------------|9---------------|9---------------|9---------------| 
E|----------------|----------------|----------------|----------------| 

Guitar 2: 

  1 + 2 + 3 + 4 + |1 + 2 + 3 + 4 + |1 + 2 + 3 + 4 + |1 + 2 + 3 + 4 + | 
e|--------9-----9-|--------9-----9-|----------------|--------11----11| 
B|--------9-----9-|--------9-----9-|--------6-----6-|--------9-----9-| 
G|----------------|----------------|--------6-----6-|----------------| x4 
D|----------------|----------------|----------------|----------------| 
A|----------------|----------------|----------------|----------------| 
E|----------------|----------------|----------------|----------------| 


Part E 

Guitar 1: 

  1 + 2 + 3 + 4 + |1 + 2 + 3 + 4 + |1 + 2 + 3 + 4 + |1 + 2 + 3 + 4 + | 
e|--------4-------|----------------|--------4-------|--------4-------| 
B|--------4-------|----------------|--------4-------|--------4-------| 
G|----------------|----------------|----------------|----------------| 
D|------------3---|----------------|----------------|----------------| 
A|4---4-----------|1---------------|----3-----------|----3-----------| 
E|----------------|----------------|4---------------|4---------------| 

Guitar 2: 

  1 + 2 + 3 + 4 + |1 + 2 + 3 + 4 + |1 + 2 + 3 + 4 + |1 + 2 + 3 + 4 + | 
e|----------------|--------1-------|--------------4-|--------------4-| 
B|----------------|--------2-------|--------------4-|--------------4-| 
G|----------------|------------3---|----------------|----------------| 
D|----------------|----------------|------------6---|------------6---| 
A|----------------|----------------|----------------|----------------| 
E|----------------|----------------|----------------|----------------| 


Part F 

Guitar 1: 

  1 + 2 + 3 + 4 + |1 + 2 + 3 + 4 + |1 + 2 + 3 + 4 + |1 + 2 + 3 + 4 + | 
e|--------4-------|----------------|--------4-------|--------4-------| 
B|--------4-------|----------------|--------4-------|--------4-------| 
G|----------------|----------------|----------------|----------------| x3 
D|----3-----------|----3-----------|----------------|----------------| 
A|4---------------|1---------------|----3-----------|----3-----------| 
E|----------------|----------------|4---------------|4---------------| 

Guitar 2: 

  1 + 2 + 3 + 4 + |1 + 2 + 3 + 4 + |1 + 2 + 3 + 4 + |1 + 2 + 3 + 4 + | 
e|--------------4-|--------1-----1-|--------------4-|--------------4-| 
B|--------------4-|--------2-----2-|--------------4-|--------------4-| 
G|----------------|------------3---|----------------|----------------| x3 
D|------------6---|----------------|------------6---|------------6---| 
A|----------------|----------------|----------------|----------------| 
E|----------------|----------------|----------------|----------------| 


Part G 

Guitar 1: 

  1 + 2 + 3 + 4 + |1 + 2 + 3 + 4 + |1 + 2 + 3 + 4 + |1 + 2 + 3 + 4 + | 
e|x---------------|----------------|----------------|----------------| 
B|2---------------|----------------|----------------|----------------| 
G|1---------------|3---------------|1---------------|----------------| x2 
D|3---------------|3---------------|1---------------|----------------| 
A|4---------------|1---------------|3---------------|----------------| 
E|----------------|----------------|4---------------|----------------| 


************************************ 

| x  Dead note 

************************************ 
  

cifra enviadasem correções
enviado porenviada por:bombaXXX
top 5 | mogwai
top rock'n roll
Outras músicas do artista letras do(a) Mogwai
Top cifras »Top artistas »
Petaxxon Comunicação Online
Cifras.com.br - Melhor e mais completo site de cifras e tablaturas do Brasil
Mais de 1 milhão de acordes de músicas cadastradas desde 2003
As informações contidas no nosso site são colaborações de seus usuários e podem conter erros, sendo assim, não nos responsabilizamos sobre nenhuma destas.
close
menos
mais
close
Cor dos acordes:

Cor da letra:

 

save
close
close
 
redimensionar