Cifras e Tablaturas
Cifras Cancelar Versão de Impressão
cifras

Moose Blood - Glow

fixar na tela  
Exibindo: vídeo-aula ver clipes redimensionar

Tom:

  
Intro 
E|---------------------------------------------------------| 
B|-----15-15-15-12-12-12-10-10--15-15-15-12-12-12-10-10----|  
G|---------------------------------------------------------|  
D|---------------------------------------------------------| 
A|---------------------------------------------------------| 
E|---------------------------------------------------------| 
                                                                   X2 
E|------------------------------------------------------------| 
B|-----15-15-15-12-12-12-10-10--17-17-17-17-17\15-15-15-15----|  
G|------------------------------------------------------------|  
D|------------------------------------------------------------| 
A|------------------------------------------------------------| 
E|------------------------------------------------------------| 

Verse 
E|-------5--------------5--------------5------------------5---5-------| 
B|---------5---5----------5---5----------5---5--------5-----5---5-----|  
G|---7-------7------7-------7------7-------7------7-----7-------------|  
D|-7---7----------7---7----------7---7----------7---7-----------------| 
A|--------------------------------------------------------------------| 
E|--------------------------------------------------------------------| 
                                                                             X2 
E|-------5--------------5------------------------------| 
B|---------5---5----------5---5--------5---5-----------|  
G|---7-------7------7-------7------7-----7---7---------|  
D|-7---7----------7---7----------7---7-----------------| 
A|-----------------------------------------------------| 
E|-----------------------------------------------------| 

E|---5-5-5-5-5-5-5----| 
B|---5-5-5-5-5-5-5----|  
G|---7-7-7-7-7-7-7----| 
D|---7-7-7-7-7-7-7----| 
A|---0-0-0-0-0-0-0----| 
E|---x-x-x-x-x-x-x----| 

Chorus 
E|---------------------------------------------------------------------| 
B|---------------------------------------------------------------------|  
G|----------------------------------7-7-7-7-7-7-7-7--------------------|  
D|--5-5-5-5-5-5-5-5-7-7-7-7-7-7-7-7-7-7-7-7-7-7-7-7-9-9-9-9-9-9-9-9----| 
A|--5-5-5-5-5-5-5-5-7-7-7-7-7-7-7-7-5-5-5-5-5-5-5-5-9-9-9-9-9-9-9-9----| 
E|--3-3-3-3-3-3-3-3-5-5-5-5-5-5-5-5-----------------7-7-7-7-7-7-7-7----| 

E|---------------------------------------------------------------------| 
B|---------------------------------------------------------------------|  
G|----------------------------------7-7-7-7-7-7-7-7-7-7-7-7-7-7-7-7----|  
D|--5-5-5-5-5-5-5-5-7-7-7-7-7-7-7-7-7-7-7-7-7-7-7-7-7-7-7-7-7-7-7-7----| 
A|--5-5-5-5-5-5-5-5-7-7-7-7-7-7-7-7-5-5-5-5-5-5-5-5-5-5-5-5-5-5-5-5----| 
E|--3-3-3-3-3-3-3-3-5-5-5-5-5-5-5-5------------------------------------| 

Bridge 
E|----17-17-17----------------------------------17-17-17-----------------------------------| 
B|-------------15-15-15-17-17-17-14-14-14-14-14----------15-15-15-17-17-17-19-19-19-19-19--|  
G|-----------------------------------------------------------------------------------------|  
D|-----------------------------------------------------------------------------------------| 
A|-----------------------------------------------------------------------------------------| 
E|-----------------------------------------------------------------------------------------| 
                                                                                              x2 
E|----17-17-17-----------------------------------------------------------------------------| 
B|-------------15-15-15-17-17-17-14-14-14-14-14-12-12-12-10-10-10-8-8-8-7-7-7-7-7----------|  
G|-----------------------------------------------------------------------------------------|  
D|-----------------------------------------------------------------------------------------| 
A|-----------------------------------------------------------------------------------------| 
E|-----------------------------------------------------------------------------------------| 

E|--------------------------------------------------| 
B|--------------------------------------------------|  
G|-------------7~----------------------7~----7~-----|  
D|-5~----7~----7~----9~----5~----7~----7~----7~-----| 
A|-5~----7~----5~----9~----5~----7~----5~----5~-----| 
E|-3~----5~----------7~----3~----5~-----------------| 
  

top 5 | moose blood
top rock'n roll
Outras músicas do artista letras do(a) Moose Blood
3.
Gum
Top cifras »Top artistas »
Petaxxon Comunicação Online
Cifras.com.br - Melhor e mais completo site de cifras e tablaturas do Brasil
Mais de 1 milhão de acordes de músicas cadastradas desde 2003
As informações contidas no nosso site são colaborações de seus usuários e podem conter erros, sendo assim, não nos responsabilizamos sobre nenhuma destas.
close
menos
mais
close
Cor dos acordes:

Cor da letra:

 

save
close
close
 
redimensionar