Cifras e Tablaturas
Moose Blood

Moose Blood

Its Too Much

Cifras Cancelar Versão de Impressão
cifras

Moose Blood - Its Too Much

fixar na tela  
Exibindo: vídeo-aula ver clipes redimensionar
  
Intro 

Guitar 1 
E|------------------|------------------|------------------|------------------| 
B|------0------0----|------0------0----|------0------0----|------0------0----| 
G|------------------|------------------|------------------|------------------| 
D|------------------|------------------|------------------|------------------| 
A|------------------|------------------|------------------|------------------| 
E|--4-4---4--4---4--|--2-2---2--2---2--|--0-0---0--0---0--|--2-2---2--2---2--| 

Guitar 2 
E|-----------------------|------------------------| 
B|-----------------------|------------------------| 
G|-----------------------|------------------------| 
D|--6--6--8~---9--9--8~--|--6--6--8~---9--9--11~--| 
A|-----------------------|------------------------| 
E|-----------------------|------------------------| 

Guitar 3 
E|----2-------2-------2---2/4--2----| 
B|--4---4---4---4---4---4--------4--| 
G|----------------------------------| 
D|----------------------------------| 
A|----------------------------------| 
E|----------------------------------| 


Verse 

Guitar 1 
E|------------------|------------------|------------------|------------------| 
B|------0------0----|------0------0----|------0------0----|------0------0----| 
G|------------------|------------------|------------------|------------------| 
D|------------------|------------------|------------------|------------------| 
A|------------------|------------------|------------------|------------------| 
E|--4-4---4--4---4--|--2-2---2--2---2--|--0-0---0--0---0--|--2-2---2--2---2--| 

Guitar 2 
E|--7~---9~---11~---9~--| 
B|----------------------| 
G|----------------------| 
D|----------------------| 
A|----------------------| 
E|----------------------| 


Chorus 

Guitar 1 
E|------------------|------------------|------------------|------------------| 
B|------0------0----|------0------0----|------0------0----|------0------0----| 
G|------------------|------------------|------------------|------------------| 
D|------------------|------------------|------------------|------------------| 
A|------------------|------------------|------------------|------------------| 
E|--4-4---4--4---4--|--2-2---2--2---2--|--0-0---0--0---0--|--2-2---2--2---2--| 

Guitar 2 
E|-----------------------|------------------------| 
B|-----------------------|------------------------| 
G|-----------------------|------------------------| 
D|--6--6--8~---9--9--8~--|--6--6--8~---9--9--11~--| 
A|-----------------------|------------------------| 
E|-----------------------|------------------------| 

Guitar 3 
E|----2-------2-------2---2/4--2----| 
B|--4---4---4---4---4---4--------4--| 
G|----------------------------------| 
D|----------------------------------| 
A|----------------------------------| 
E|----------------------------------| 


Verse 

Guitar 1 
E|------------------|------------------|------------------|------------------| 
B|------0------0----|------0------0----|------0------0----|------0------0----| 
G|------------------|------------------|------------------|------------------| 
D|------------------|------------------|------------------|------------------| 
A|------------------|------------------|------------------|------------------| 
E|--4-4---4--4---4--|--2-2---2--2---2--|--0-0---0--0---0--|--2-2---2--2---2--| 

Guitar 2 
E|--7~---9~---11~---9~--| 
B|----------------------| 
G|----------------------| 
D|----------------------| 
A|----------------------| 
E|----------------------| 


Chorus 

Guitar 1 
E|------------------|------------------|------------------|------------------| 
B|------0------0----|------0------0----|------0------0----|------0------0----| 
G|------------------|------------------|------------------|------------------| 
D|------------------|------------------|------------------|------------------| 
A|------------------|------------------|------------------|------------------| 
E|--4-4---4--4---4--|--2-2---2--2---2--|--0-0---0--0---0--|--2-2---2--2---2--| 

Guitar 2 
E|-----------------------|------------------------| 
B|-----------------------|------------------------| 
G|-----------------------|------------------------| 
D|--6--6--8~---9--9--8~--|--6--6--8~---9--9--11~--| 
A|-----------------------|------------------------| 
E|-----------------------|------------------------| 

Guitar 3 
E|----2-------2-------2---2/4--2----| 
B|--4---4---4---4---4---4--------4--| 
G|----------------------------------| 
D|----------------------------------| 
A|----------------------------------| 
E|----------------------------------| 


Bridge 

Guitar 1 
E|------------------|------------------|------------------|------------------| 
B|------0------0----|------0------0----|------0------0----|------0------0----| 
G|------------------|------------------|------------------|------------------| 
D|------------------|------------------|------------------|------------------| 
A|------------------|------------------|------------------|------------------| 
E|--4-4---4--4---4--|--2-2---2--2---2--|--0-0---0--0---0--|--2-2---2--2---2--| 

Guitar 2 (comes in at second playthrough of Guitar 1) 
E|-------------------|-------------------|-------------------|-------------------| 
B|-------------------|-------------------|-------------------|-------------------| 
G|-------------------|-------------------|-------------------|-------------------| 
D|-------------------|-------------------|-------------------|-------------------| 
A|-------------------|-------------------}--7-7-7-7-7-7-7-7--|--4-4-4-4-4-4-4-4--| 
E|--4-4-4-4-4-4-4-4--|--7-7-7-7-7-7-7-7--|-------------------|-------------------| 

E|-------------------|-------------------|-------------------|-------------------| 
B|-------------------|-------------------|-------------------|-------------------| 
G|-------------------|-------------------|-------------------|-------------------| 
D|-------------------|-------------------|--9-9-9-9-9-9-9-9--|--6-6-6-6-6-6-6-6--| 
A|--6-6-6-6-6-6-6-6--|--9-9-9-9-9-9-9-9--}--7-7-7-7-7-7-7-7--|--4-4-4-4-4-4-4-4--| 
E|--4-4-4-4-4-4-4-4--|--7-7-7-7-7-7-7-7--|-------------------|-------------------| 

E|-------------------|-------------------|-------------------|-------------------|-------| 
B|-------------------|-------------------|-------------------|-------------------|-------| 
G|-------------------|-------------------|-------------------|-------------------|-------| 
D|-------------------|-------------------|--9-9-9-9-9-9-9-9--|--6-6-6-6-6-6-6-6--|-------| 
A|--6-6-6-6-6-6-6-6--|--9-9-9-9-9-9-9-9--}--7-7-7-7-7-7-7-7--|--4-4-4-4-4-4-4-4--|---6~--| 
E|--4-4-4-4-4-4-4-4--|--7-7-7-7-7-7-7-7--|-------------------|-------------------|---4~--| 

Guitar 3 (solo part) 
E|--------------------|-----------------------------------| 
B|--------------------|--------------------9-9------------| 
G|--8-8-8-------------|--8-8-8----------------------------| 
D|--------9-9-9-11~---|--------9-9-9-6-6-6-----6-6-8-9-8--| 
A|--------------------|-----------------------------------| 
E|--------------------|-----------------------------------| 

E|--------------------|-----------------------------------|-------| 
B|--------------------|--------------------9-9------------|-------| 
G|--8-8-8-------------|--8-8-8----------------------------|-------| 
D|--------9-9-9-11~---|--------9-9-9-6-6-6-----6-6-8-9-8--|---8~--| 
A|--------------------|-----------------------------------|-------| 
E|--------------------|-----------------------------------|-------| 


Outro 

Guitar 1                                                                       end on 
E|------------------|------------------|------------------|------------------||-------|| 
B|------0------0----|------0------0----|------0------0----|------0------0----||-------|| 
G|------------------|------------------|------------------|------------------||-------|| 
D|------------------|------------------|------------------|------------------||-------|| 
A|------------------|------------------|------------------|------------------||-------|| 
E|--4-4---4--4---4--|--2-2---2--2---2--|--0-0---0--0---0--|--2-2---2--2---2--||---4~--|| 



****************************** 

|  /    slide up 
|  ~    held note 

****************************** 
  

top 5 | moose blood
top rock'n roll
Outras músicas do artista letras do(a) Moose Blood
Top cifras »Top artistas »
Petaxxon Comunicação Online
Cifras.com.br - Melhor e mais completo site de cifras e tablaturas do Brasil
Mais de 1 milhão de acordes de músicas cadastradas desde 2003
As informações contidas no nosso site são colaborações de seus usuários e podem conter erros, sendo assim, não nos responsabilizamos sobre nenhuma destas.
close
menos
mais
close
Cor dos acordes:

Cor da letra:

 

save
close
close
 
redimensionar