Cifras e Tablaturas
Cifras Cancelar Versão de Impressão
cifras

Moose Blood - Sulk

fixar na tela  
Exibindo: vídeo-aula ver clipes redimensionar

Tom:

  Intro 

e|----2~----2~----2~----2~----2~---------------------------------------------| 
B|--2~----2~----2~----2~----2~-----------------------------------------------| 
G|4~----4~----4~----4~----4~----4~-------------------------------------------| 
D|---------------------------------------------------------------------------| 
A|---------------------------------------------------------------------------| 
E|---------------------------------------------------------------------------| 

After one repeat of the first part, this part comes in 
e|---------------------------------------------------------------------------| 
B|---------------------------------------------------------------------------| 
G|------1~--------1~--------1~----3h4--3h4-----------------------------------| 
D|--4~----4~--4~----4~--4~----4~---------------------------------------------| 
A|2~--2~----1~--1~--------2~----2~---2~--------------------------------------| 
E|--------------------7~-----------------------------------------------------| 


Verse 

e|---------------------------------------------------------------------------| 
B|---------------------------------------------------------------------------| 
G|------1~--------1~--------1~------1~---------------------------------------| 
D|--4~----4~--4~----4~--4~----4~4~-------------------------------------------| 
A|2~--2~----1~--1~--------2~------2~-----------------------------------------| 
E|--------------------7~-----------------------------------------------------| 


Chorus 

e|----------------2~-----------------2~--------------------------------------| 
B|---2-2~--4p2--4~--4~\--2-2~--4p2h4~----------------------------------------| 
G|/4~----4~---4~-------4~----4~----------------------------------------------| 
D|---------------------------------------------------------------------------| 
A|---------------------------------------------------------------------------| 
E|---------------------------------------------------------------------------| 

e|---------------------------------------------------------------------------| 
B|---------------------------------------------------------------------------| 
G|------1~--------1~--------1~------1~---------------------------------------| 
D|--4~----4~--4~----4~--4~----4~4~-------------------------------------------| 
A|2~--2~----1~--1~--------2~------2~-----------------------------------------| 
E|--------------------7~-----------------------------------------------------| 


Verse 
Chorus 


Outro 

e|---------------------------------------------------------------------------| 
B|4~------4~------4~------4~------2~------2~---------2~--2-4p2~--------------| 
G|----4~------4~------4~------4~------4~------4~--/4~--4~------4~------------| 
D|--4~--4~--4~--4~--4~--4~--4~--4~--4~--4~--4~--4~---------------------------| 
A|---------------------------------------------------------------------------| 
E|---------------------------------------------------------------------------| 



************************************ 
| h   Hammer-on 
| p   Pull-off 
| /   Slide up 
| \   Slide down 
| ~   Vibrato 
************************************ 
  

top 5 | moose blood
top rock'n roll
Outras músicas do artista letras do(a) Moose Blood
3.
Gum
Top cifras »Top artistas »
Petaxxon Comunicação Online
Cifras.com.br - Melhor e mais completo site de cifras e tablaturas do Brasil
Mais de 1 milhão de acordes de músicas cadastradas desde 2003
As informações contidas no nosso site são colaborações de seus usuários e podem conter erros, sendo assim, não nos responsabilizamos sobre nenhuma destas.
close
menos
mais
close
Cor dos acordes:

Cor da letra:

 

save
close
close
 
redimensionar