Cifras e Tablaturas
Moose Blood

Moose Blood

Talk In Your Sleep

Cifras Cancelar Versão de Impressão

Moose Blood - Talk In Your Sleep

Tom:

  			Check out my cover: https://www.youtube.com/watch?v=8yDtPeiDolc 

Intro 
e|---------------------------------------------------------------------------| 
B|-------------5-------------------------9-----7------5------7--5------------| 
G|--4-----6-------------4------------------------------------------4h6---4---| 
D|----------------------------6----7-----------------------------------------| 
A|---------------------------------------------------------------------------| 
E|---------------------------------------------------------------------------| 

e|---------------------------------------------------------------------------| 
B|---------------------------------------------------------------------------| 
G|-2--2---2-2-2-2----2--2---2-2-2-2------------------------------------------| 
D|-2--2---2-2-2-2----2--2---2-2-2-2------------------------------------------| 
A|-0--0---0-0-0-0----0--0---0-0-0-0------------------------------------------| 
E|---------------------------------------------------------------------------| 

Verse 
e|-12---12----12----12----12----12----12----12----9----9----9----9----12----12---12---12---| 
B|---10----10----10----10----10----10----10----10---10---10---10---10----10---10---10---10-| 
G|-----------------------------------------------------------------------------------------| 
D|-----------------------------------------------------------------------------------------| play 4 times 
A|-----------------------------------------------------------------------------------------| 
E|-----------------------------------------------------------------------------------------| 

e|---------------------------------------------------------------------------| 
B|---------------------------------------------------------------------------| 
G|-9---9---9---9-----6---6---6-----4---4---4-----6---6----4----4-------------| play 2 times 
D|---7---7---7---7-----7---7---7-----7---7---7-----7---7----7----7-----------| 
A|---------------------------------------------------------------------------| 
E|---------------------------------------------------------------------------| 

Chorus 
e|---------------------------------------------------------------------------------| 
B|-3---3-3------------------------------------------------------3---3-3------------| 
G|-2---2-2--2----2-2--------------------------------------------2---2-2--2----2-2--| 
D|-0---0-0--2----2-2--2---2-2---2---2-2----4----4-4---2---2-2---0---0-0--2----2-2--| 
A|----------0----0-0--2---2-2---2---2-2----4----4-4---2---2-2------------0----0-0--| 
E|--------------------0---0-0---0---0-0----2----2-2---0---0-0----------------------| 

e|---------------------------------------------------------------------------------| 
B|-----------------------3---3-3---3---3-3-----------------------------------------| 
G|-----------------------2---2-2---2---2-2-----------------------------------------| 
D|--2---2-2---2---2-2----0---0-0---0---0-0--4---4-4---4---4-4---2---2-2---2---2-2--| 
A|--2---2-2---2---2-2-----------------------4---4-4---4---4-4---2---2-2---2---2-2--| 
E|--0---0-0---0---0-0-----------------------2---2-2---2---2-2---0---0-0---0---0-0--| 

Verse 
e|-12---12----12----12----12----12----12----12----9----9----9----9----12----12---12---12---| 
B|---10----10----10----10----10----10----10----10---10---10---10---10----10---10---10---10-| 
G|-----------------------------------------------------------------------------------------| 
D|-----------------------------------------------------------------------------------------| play 4 times 
A|-----------------------------------------------------------------------------------------| 
E|-----------------------------------------------------------------------------------------| 

e|---------------------------------------------------------------------------| 
B|---------------------------------------------------------------------------| 
G|-9---9---9---9-----6---6---6-----4---4---4-----6---6----4----4-------------| play 2 times 
D|---7---7---7---7-----7---7---7-----7---7---7-----7---7----7----7-----------| 
A|---------------------------------------------------------------------------| 
E|---------------------------------------------------------------------------| 

Chorus 
e|---------------------------------------------------------------------------------| 
B|-3---3-3------------------------------------------------------3---3-3------------| 
G|-2---2-2--2----2-2--------------------------------------------2---2-2--2----2-2--| 
D|-0---0-0--2----2-2--2---2-2---2---2-2----4----4-4---2---2-2---0---0-0--2----2-2--| 
A|----------0----0-0--2---2-2---2---2-2----4----4-4---2---2-2------------0----0-0--| 
E|--------------------0---0-0---0---0-0----2----2-2---0---0-0----------------------| 

e|---------------------------------------------------------------------------------| 
B|-----------------------3---3-3---3---3-3-----------------------------------------| 
G|-----------------------2---2-2---2---2-2-----------------------------------------| 
D|--2---2-2---2---2-2----0---0-0---0---0-0--4---4-4---4---4-4---2---2-2---2---2-2--| 
A|--2---2-2---2---2-2-----------------------4---4-4---4---4-4---2---2-2---2---2-2--| 
E|--0---0-0---0---0-0-----------------------2---2-2---2---2-2---0---0-0---0---0-0--| 

Bridge 
e|---------------------------------------------------------------------------| 
B|-----5------------------5-------------------5------------------------------| 
G|--------6-----------------6--------------------6---------------------------| 
D|--------------------------------------0------------------------------------| 
A|-0------------------4------------------------------------------------------| 
E|---------------------------------------------------------------------------| 

e|---------------------------------------------------------------------------| 
B|---------------------------------------------------------------------------| 
G|-2--2--2-2-2-2--6---6--6-6-6-6--7--7--7-7-7-7--7--7--7-7-7-7---------------| 
D|-2--2--2-2-2-2--7---7--7-7-7-7--7--7--7-7-7-7--7--7--7-7-7-7---------------| 
A|-0--0--0-0-0-0--4---4--4-4-4-4--5--5--5-5-5-5--5--5--5-5-5-5---------------| 
E|---------------------------------------------------------------------------| 

e|---------------------------------------------------------------------------| 
B|---------------------------------------------------------------------------| 
G|-4--4--4-4-4-4--6---6--6-6-6-6--7--7--7-7-7-7--7--7--7-7-7-7---------------| 
D|-4--4--4-4-4-4--7---7--7-7-7-7--7--7--7-7-7-7--7--7--7-7-7-7---------------| 
A|-2--2--2-2-2-2--4---4--4-4-4-4--5--5--5-5-5-5--5--5--5-5-5-5---------------| 
E|---------------------------------------------------------------------------| 

e|---------------------------------------------------------------------------| 
B|---------------------------------------------------------------------------| 
G|-2--2--2-2-2-2--6---6--6-6-6-6--7--7--7-7-7-7--7--7--7-7-7-7---------------| 
D|-2--2--2-2-2-2--7---7--7-7-7-7--7--7--7-7-7-7--7--7--7-7-7-7---------------| 
A|-0--0--0-0-0-0--4---4--4-4-4-4--5--5--5-5-5-5--5--5--5-5-5-5---------------| 
E|---------------------------------------------------------------------------| 

e|---------------------------------------------------------------------------| 
B|---------------------------------------------------------------------------| 
G|-4--4--4-4-4-4--6---6--6-6-6-6--7--7--7-7-7-7--7--7--7-7-7-7---------------| 
D|-4--4--4-4-4-4--7---7--7-7-7-7--7--7--7-7-7-7--7--7--7-7-7-7---------------| 
A|-2--2--2-2-2-2--4---4--4-4-4-4--5--5--5-5-5-5--5--5--5-5-5-5---------------| 
E|---------------------------------------------------------------------------| 

Chorus 
e|---------------------------------------------------------------------------------| 
B|-3---3-3------------------------------------------------------3---3-3------------| 
G|-2---2-2--2----2-2--------------------------------------------2---2-2--2----2-2--| 
D|-0---0-0--2----2-2--2---2-2---2---2-2----4----4-4---2---2-2---0---0-0--2----2-2--| 
A|----------0----0-0--2---2-2---2---2-2----4----4-4---2---2-2------------0----0-0--| 
E|--------------------0---0-0---0---0-0----2----2-2---0---0-0----------------------| 

e|---------------------------------------------------------------------------------| 
B|-----------------------3---3-3---3---3-3-----------------------------------------| 
G|-----------------------2---2-2---2---2-2-----------------------------------------| 
D|--2---2-2---2---2-2----0---0-0---0---0-0--4---4-4---4---4-4---2---2-2---2---2-2--| 
A|--2---2-2---2---2-2-----------------------4---4-4---4---4-4---2---2-2---2---2-2--| 
E|--0---0-0---0---0-0-----------------------2---2-2---2---2-2---0---0-0---0---0-0--| 

************************************ 

| h   Hammer-on 

************************************ 
    	
fixar
fixar inscrever-se

enviado porenviado por: alyslima
cifra enviadaCorrigida por: sem correções
logo top cifrasComente
ico música do artistaMúsicas deste artista
ico curtiuCurtiu?
ico destaqueDestaque
Petaxxon Comunicação Online

Cifras.com.br - Melhor e mais completo site de cifras e tablaturas do Brasil Mais de 1 milhão de acordes de músicas cadastradas desde 2003
As informações contidas no nosso site são colaborações de seus usuários e podem conter erros, sendo assim, não nos responsabilizamos sobre nenhuma destas.

close
menos
mais
close
Cor dos acordes:

Cor da letra:

close
Alinhar acordes a direita Alinhar acordes a esquerda Alinhar acordes em baixo Alinhar acordes no topo
close
  Mostrar todos os acordes Esconder acordes muito fáceis Esconder acordes fáceis Esconder acordes intermediários
redimensionar
glossário