Cifras e Tablaturas
Cifras Cancelar Versão de Impressão
cifras

Motionless In White - Underdog

fixar na tela  
Exibindo: vídeo-aula ver clipes redimensionar
  
Intro: 0:00-0:16 
x       x xx           x xx xxx x     x xx           x xx xxx x   
C#||------------------------------------------------------------| 
G#||------------------------------------------------------------| 
E ||------------------------------------------------------------| 
B ||------------------------------------------------------------| 
F#||6-0-0-00-6-0-6-6-0-0-00-000-0-6-0-0-00-6-0-6-6-0-0-00-000-0-|                        
B ||6-0-0-00-6-0-6-6-0-0-00-000-0-6-0-0-00-6-0-6-6-0-0-00-000-0-|  

x       x xx           x xx xxx x     x xx           x xx xxx x   
C#||------------------------------------------------------------| 
G#||------------------------------------------------------------| 
E ||------------------------------------------------------------| 
B ||------------------------------------------------------------| 
F#||6-0-0-00-6-0-6-6-0-0-00-000-0-6-0-0-00-6-0-6-6-0-0-00-000-0-| 
B ||6-0-0-00-6-0-6-6-0-0-00-000-0-6-0-0-00-6-0-6-6-0-0-00-000-0-|  


Verse: 0:16-0:33 
x                                                           
C#||------------------------------------------------------| 
G#||------------------------------------------------------| 
E ||------------------------------------------------------| 
B ||------------------------------------------------------| 
F#||------------------------------------------------------| 
B ||6-0-0-00-6-0-6-6-0-0-00-6-0-6-6-0-0-00-6-0-6-6-0-0-00-| 

x             xxx        xxx xx x        xxx        xxx                             
C#||------------------------------------------------------| 
G#||------------------------------------------------------| 
E ||------------------------------------------------------| 
B ||------------------------------------------------------| 
F#||----------000--------000-00-0--------000--------000---| 
B ||6-0-6-6-0-0000---6-0-000000000---6-0-0000---6-0-000---| 

Chorus: 0:34-0:51 
x                              
C#||---------------------------------------------------------------| 
G#||---------------------------------------------------------------| 
E ||---------------------------------------------------------------| 
B ||---------------------------------------------------------------| 
F#||7-7-7-7-2-2-2-2-3-3-3-3-5-5-5-5-7-7-7-7-2-2-2-2-3-3-3-3-5-5-5-5| 
B ||7-7-7-7-2-2-2-2-3-3-3-3-5-5-5-5-7-7-7-7-2-2-2-2-3-3-3-3-5-5-5-5| 

Bridge: 0:52-1:09 
x       x xx           x xx xxx x     x xx           x xx xxx x   
C#||------------------------------------------------------------| 
G#||------------------------------------------------------------| 
E ||------------------------------------------------------------| 
B ||------------------------------------------------------------| 
F#||6-0-0-00-6-0-6-6-0-0-00-000-0-6-0-0-00-6-0-6-6-0-0-00-000-0-|                        
B ||6-0-0-00-6-0-6-6-0-0-00-000-0-6-0-0-00-6-0-6-6-0-0-00-000-0-|  

x       x xx           x xx xxx x     x xx           x xx xxx x   
C#||------------------------------------------------------------| 
G#||------------------------------------------------------------| 
E ||------------------------------------------------------------| 
B ||------------------------------------------------------------| 
F#||6-0-0-00-6-0-6-6-0-0-00-000-0-6-0-0-00-6-0-6-6-0-0-00-000-0-| 
B ||6-0-0-00-6-0-6-6-0-0-00-000-0-6-0-0-00-6-0-6-6-0-0-00-000-0-|  

Verse: 1:10-1:26 
x                                                           
C#||------------------------------------------------------| 
G#||------------------------------------------------------| 
E ||------------------------------------------------------| 
B ||------------------------------------------------------| 
F#||------------------------------------------------------| 
B ||6-0-0-00-6-0-6-6-0-0-00-6-0-6-6-0-0-00-6-0-6-6-0-0-00-| 

x             xxx        xxx xx x        xxx        xxx                             
C#||------------------------------------------------------| 
G#||------------------------------------------------------| 
E ||------------------------------------------------------| 
B ||------------------------------------------------------| 
F#||----------000--------000-00-0--------000--------000---| 
B ||6-0-6-6-0-0000---6-0-000000000---6-0-0000---6-0-000---| 

Chorus: 1:27-2:01 
x                              
C#||---------------------------------------------------------------| 
G#||---------------------------------------------------------------| 
E ||---------------------------------------------------------------| 
B ||---------------------------------------------------------------| 
F#||7-7-7-7-2-2-2-2-3-3-3-3-5-5-5-5-7-7-7-7-2-2-2-2-3-3-3-3-5-5-5-5| 
B ||7-7-7-7-2-2-2-2-3-3-3-3-5-5-5-5-7-7-7-7-2-2-2-2-3-3-3-3-5-5-5-5| 

x                              
C#||---------------------------------------------------------------| 
G#||---------------------------------------------------------------| 
E ||---------------------------------------------------------------| 
B ||---------------------------------------------------------------| 
F#||7-7-7-7-2-2-2-2-3-3-3-3-5-5-5-5-7-7-7-7-2-2-2-2-3-3-3-3-5-5-5-5| 
B ||7-7-7-7-2-2-2-2-3-3-3-3-5-5-5-5-7-7-7-7-2-2-2-2-3-3-3-3-5-5-5-5| 

Breakdown: 2:02-2:36 
x   xxxx xx   xxxx xxxxxx xxxx xx   xxxx xxxxxx                   
C#||--------------------------------------------| 
G#||--------------------------------------------| 
E ||--------------------------------------------| 
B ||--------------------------------------------| 
F#||7777-777--2222-222222/3333-333--3333/555555/| 
B ||7777-777--2222-222222/3333-333--3333/555555/| 

x   xxxx xx   xxxx xxxxxx xxxx xx   xxxx xxxxxx                   
C#||--------------------------------------------| 
G#||--------------------------------------------| 
E ||--------------------------------------------| 
B ||--------------------------------------------| 
F#||7777-777--2222-222222/3333-333--3333/555555/| 
B ||7777-777--2222-222222/3333-333--3333/555555/| 

x   xxxx xx   xxxx xxxxxx xxxx xx   xxxx xxxxxx                   
C#||--------------------------------------------| 
G#||--------------------------------------------| 
E ||--------------------------------------------| 
B ||--------------------------------------------| 
F#||7777-777--2222-222222/3333-333--3333/555555/| 
B ||7777-777--2222-222222/3333-333--3333/555555/| 

x   xxxx xx   xxxx xxxxxx xxxx xx   xxxx                   
C#||--------------------------------------------| 
G#||--------------------------------------------| 
E ||--------------------------------------------| 
B ||--------------------------------------------| 
F#||7777-777--2222-222222/3333-333--3333/555555-| 
B ||7777-777--2222-222222/3333-333--3333/555555-| 

Chorus: 2:36-2:54 
x                              
C#||---------------------------------------------------------------| 
G#||---------------------------------------------------------------| 
E ||---------------------------------------------------------------| 
B ||---------------------------------------------------------------| 
F#||7-7-7-7-2-2-2-2-3-3-3-3-5-5-5-5-7-7-7-7-2-2-2-2-3-3-3-3-5-5-5-5| 
B ||7-7-7-7-2-2-2-2-3-3-3-3-5-5-5-5-7-7-7-7-2-2-2-2-3-3-3-3-5-5-5-5| 

Chorus 2: 2:58-3:32 
x                              
C#||---------------------------------------------------------------| 
G#||---------------------------------------------------------------| 
E ||---------------------------------------------------------------| 
B ||---------------------------------------------------------------| 
F#||9-9-9-9-4-4-4-4-5-5-5-5-7-7-7-7-9-9-9-9-4-4-4-4-5-5-5-5-7-7-7-7| 
B ||9-9-9-9-4-4-4-4-5-5-5-5-7-7-7-7-9-9-9-9-4-4-4-4-5-5-5-5-7-7-7-7| 
x                              
C#||---------------------------------------------------------------| 
G#||---------------------------------------------------------------| 
E ||---------------------------------------------------------------| 
B ||---------------------------------------------------------------| 
F#||9-9-9-9-4-4-4-4-5-5-5-5-7-7-7-7-9-9-9-9-4-4-4-4-5-5-5-5-7-7-7-7| 
B ||9-9-9-9-4-4-4-4-5-5-5-5-7-7-7-7-9-9-9-9-4-4-4-4-5-5-5-5-7-7-7-7| 

Outro: 3:33-3:56 
x       x xx           x xx xxx x     x xx           x xx xxx x   
C#||------------------------------------------------------------| 
G#||------------------------------------------------------------| 
E ||------------------------------------------------------------| 
B ||------------------------------------------------------------| 
F#||6-0-0-00-6-0-6-6-0-0-00-000-0-6-0-0-00-6-0-6-6-0-0-00-000-0-|                        
B ||6-0-0-00-6-0-6-6-0-0-00-000-0-6-0-0-00-6-0-6-6-0-0-00-000-0-|  

x       xxx        xxx xx x        xxx        xxx                          
C#||-------------------------------------------------------| 
G#||-------------------------------------------------------| 
E ||-------------------------------------------------------| 
B ||-------------------------------------------------------| 
F#||6-0-0000---6-0-000000000---6-0-0000---6-0-000---------0| 
B ||6-0-0000---6-0-000000000---6-0-0000---6-0-000-666666660|  
  

top 5 | motionless in white
top rock alternativo
Outras músicas do artista letras do(a) Motionless In White
Top cifras »Top artistas »
Petaxxon Comunicação Online
Cifras.com.br - Melhor e mais completo site de cifras e tablaturas do Brasil
Mais de 1 milhão de acordes de músicas cadastradas desde 2003
As informações contidas no nosso site são colaborações de seus usuários e podem conter erros, sendo assim, não nos responsabilizamos sobre nenhuma destas.
close
menos
mais
close
Cor dos acordes:

Cor da letra:

 

save
close
close
 
redimensionar