Cifras e Tablaturas
Motorpsycho

Motorpsycho

Entropy

Cifras Cancelar Versão de Impressão
cifras

Motorpsycho - Entropy

fixar na tela  
Exibindo: vídeo-aula ver clipes redimensionar

Tom:

E

ver outros tons
  
Intro 
D|-0-----0-----0-----0---|-0-----0-----0-----0----| 
A|-0-----0-----0-----0---|-0-----0-----0-----0----| 
G|-7-----4-----7-----6---|-7-----4-----6-----6----| 
D|-7-----5-----7-----7---|-7-----5-----7-----7----| 
B|-5-----5-----5-----7---|-5-----5-----0-----0----| 
E|-----------------------|------------------------| 

Verse 
D|-0-----0-----0-----0---|-0-----0--0--0-----0----| 
A|-0-----0-----0-----0---|-0-----0--0--0-----0----| 
G|-7-----4-----7-----6---|-7-----4--4--6-----6----| 
D|-7-----5-----7-----7---|-7-----5--5--7-----7----| 
B|-5-----5-----5-----7---|-5-----5--5--0-----0----| 
E|-0-----0-----0-----5---|-0-----0--0--0-----0----| 

D|-0-----0-----0-----0---|-0-----0--0--0-----0----| 
A|-0-----0-----0-----0---|-0-----0--0--0-----0----| 
G|-7-----4-----7-----6---|-7-----4--4--6-----6----| 
D|-7-----5-----7-----7---|-7-----5--5--7-----7----| 
B|-5-----5-----5-----7---|-5-----5--5--0-----0----| 
E|-0-----0-----0-----5---|-0-----0--0--0-----0----| 

Chorus 
D|-0---0--0--0---0--|--0---0--0--0---0-| 
A|-0---0--0--0---0--|--0---0--0--0---0-| 
G|-0---0--0--0---2--|--0---0--0--0---6-| 
D|-0---------0---0--|--0---0--0--7---7-| 
B|-0---10-12-0---0--|--0---10-12-7---7-| 
E|-3---9--10-3------|--3---9--10-7---5-| 

D|-0---0--0--0---0--|--0---0--0--0----0--|-0--| 
A|-0---0--0--0---0--|--0---0--0--0----0--|-0--| 
G|-0---0--0--0---2--|--0---0--0--0----0--|-11-| 
D|-0---0--0--0---0--|--0---0--0--0----0--|-12-| 
B|-0---10-12-0---0--|--0---10-12-15---13-|-12-| 
E|-3---9--10-3------|--3---9--10-13---12-|-10-| 

Bridge 
D|-0-------0-------0-------0--------| 
A|-0-------0-------0-------0--------| 
G|-7-------4-------7-------6--------| 
D|-7-------5-------7-------7--------| 
B|-5-------5-------5-------0--------| 
E|-0-------0-------0-------0--------| 

Verse 
D|-0-----0-----0-----0---|-0-----0--0--0-----0----| 
A|-0-----0-----0-----0---|-0-----0--0--0-----0----| 
G|-7-----4-----7-----6---|-7-----4--4--6-----6----| 
D|-7-----5-----7-----7---|-7-----5--5--7-----7----| 
B|-5-----5-----5-----7---|-5-----5--5--0-----0----| 
E|-0-----0-----0-----5---|-0-----0--3--0-----0----| 

D|-0-----0-----0-----0---|-0-----0--0--0-----0----| 
A|-0-----0-----0-----0---|-0-----0--0--0-----0----| 
G|-7-----4-----7-----6---|-7-----4--4--6-----6----| 
D|-7-----5-----7-----7---|-7-----5--5--7-----7----| 
B|-5-----5-----5-----7---|-5-----5--5--0-----0----| 
E|-0-----0-----0-----5---|-0-----0--0--0-----0----| 

Chorus 
D|-0---0--0--0---0--|--0---0--0--0---0-| 
A|-0---0--0--0---0--|--0---0--0--0---0-| 
G|-0---0--0--0---2--|--0---0--0--0---6-| 
D|-0---0--0--0---0--|--0---0--0--7---7-| 
B|-0---10-12-0---0--|--0---10-12-7---7-| 
E|-3---9--10-3------|--3---9--10-7---5-| 

D|-0---0--0--0---0--|--0---0--0--0----0--| 
A|-0---0--0--0---0--|--0---0--0--0----0--| 
G|-0---0--0--0---2--|--0---0--0--0----0--| 
D|-0---0--0--0---0--|--0---0--0--0----0--| 
B|-0---10-12-0---0--|--0---10-12-15---13-| 
E|-3---9--10-3------|--3---9--10-13---12-| 

Bridge 1 
D|-0-------0-------0-------0-----|-0-------0-------0-------0-| 
A|-0-------0-------0-------0-----|-0-------0-------0-------0-| 
G|-0-------2-------0-------2-----|-0-------2-------0-------2-| 
D|-0-------0-------0-------0-----|-0-------0-------0-------0-| 
B|-0-------0-------0-------0-----|-0-------0-------0-------0-| 
E|-3-------2-------0-------2-----|-3-------2-------0-------2-| 

D|-------------------|-------------------|-------------------| 
A|-------------------|-------------------|-------------------| 
G|-------------------|-------------------|-------------------| 
D|-------------------|-------------------|-------------------| 
B|-0-2-3--3--2-0-----|-0-2-3--3--2-0-----|-0-2-3--3--2-0-----| 
E|---------------3---|---------------3---|---------------3---| 

Solo 
D|-0-------0----|--0--| 
A|-0-------0----|--0--| 
G|-7-------6----|--6--| 
D|-7-------7----|--7--| 
B|-5-------7----|--0--| 
E|-0-------5----|--0--| 

Chorus 
D|-0---0--0--0---0---0---0--0--0---0-|-0---0--0--0---0---0---0--0--0---0-| 
A|-0---0--0--0---0---0---0--0--0---0-|-0---0--0--0---0---0---0--0--0---0-| 
G|-0---0--0--0---2---0---0--0--0---6-|-0---0--0--0---2---0---0--0--0---6-| 
D|-0---0--0--0---0---0---0--0--7---7-|-0---0--0--0---0---0---0--0--7---7-| 
B|-0---10-12-0---0---0---10-12-7---7-|-0---10-12-0---0---0---10-12-7---7-| 
E|-3---9--10-3-------3---9--10-7---5-|-3---9--10-3-------3---9--10-7---5-| 

D|-0---0--0--0---0---0---0--0--0---0-|-0---0--0--0---0---0---0--0--0---0-| 
A|-0---0--0--0---0---0---0--0--0---0-|-0---0--0--0---0---0---0--0--0---0-| 
G|-0---0--0--0---2---0---0--0--0---6-|-0---0--0--0---2---0---0--0--0---6-| 
D|-0---0--0--0---0---0---0--0--7---7-|-0---0--0--0---0---0---0--0--7---7-| 
B|-0---10-12-0---0---0---10-12-7---7-|-0---10-12-0---0---0---10-12-7---7-| 
E|-3---9--10-3-------3---9--10-7---5-|-3---9--10-3-------3---9--10-7---5-| 

D|-0---0--0--0---0---0---0--0--0---0-|-0---0--0--0---0---0---0--0--0---0-| 
A|-0---0--0--0---0---0---0--0--0---0-|-0---0--0--0---0---0---0--0--0---0-| 
G|-0---0--0--0---2---0---0--0--0---6-|-0---0--0--0---2---0---0--0--0---6-| 
D|-0---0--0--0---0---0---0--0--7---7-|-0---0--0--0---0---0---0--0--7---7-| 
B|-0---10-12-0---0---0---10-12-7---7-|-0---10-12-0---0---0---10-12-7---7-| 
E|-3---9--10-3-------3---9--10-7---5-|-3---9--10-3-------3---9--10-7---5-| 

D|-0---0--0--0---0---0---0--0--0---0-|-0---0--0--0---0---0---0--0--0---0-| 
A|-0---0--0--0---0---0---0--0--0---0-|-0---0--0--0---0---0---0--0--0---0-| 
G|-0---0--0--0---2---0---0--0--0---6-|-0---0--0--0---2---0---0--0--0---6-| 
D|-0---0--0--0---0---0---0--0--7---7-|-0---0--0--0---0---0---0--0--7---7-| 
B|-0---10-12-0---0---0---10-12-7---7-|-0---10-12-0---0---0---10-12-7---7-| 
E|-3---9--10-3-------3---9--10-7---5-|-3---9--10-3-------3---9--10-7---5-| 

D|-0---0--0--0---0---0---0--0--0---0-|-0----0--|-0--| 
A|-0---0--0--0---0---0---0--0--0---0-|-0----0--|-0--| 
G|-0---0--0--0---2---0---0--0--0---6-|-0----0--|-0--| 
D|-0---0--0--0---0---0---0--0--7---7-|-0----0--|-0--| 
B|-0---10-12-0---0---0---10-12-7---7-|-15---13-|-12-| 
E|-3---9--10-3-------3---9--10-7---5-|-13---12-|-10-| 
  

top 5 | motorpsycho
top rock alternativo
Outras músicas do artista letras do(a) Motorpsycho
Top cifras »Top artistas »
Petaxxon Comunicação Online
Cifras.com.br - Melhor e mais completo site de cifras e tablaturas do Brasil
Mais de 1 milhão de acordes de músicas cadastradas desde 2003
As informações contidas no nosso site são colaborações de seus usuários e podem conter erros, sendo assim, não nos responsabilizamos sobre nenhuma destas.
close
menos
mais
close
Cor dos acordes:

Cor da letra:

 

save
close
close
 
redimensionar