Cifras e Tablaturas
Mount Eerie

Mount Eerie

See Me

Cifras Cancelar Versão de Impressão
cifras

Mount Eerie - See Me

fixar na tela  
Exibindo: vídeo-aula ver clipes redimensionar

Tom:

D

ver outros tons
  
   i was a log in the waves   last time you saw me   end over end i was thrown 
e|--------------------------|----------------------|--------------------------------| 
B|--------------------------|----------------------|--------------------------------| 
G|--------------------------|----------------------|--------------------------------| 
D|--------------------------|--2---0--------2------|--------------------------------| 
A|------------------0--2----|-----------4-------0--|-------0--2------------------0--| 
E|----------0---2-----------|----------------------|--0--2--------------------------| 

   i endlessly groaned,  hold my hand, wont someone come surf me?  and of course no one came 
e|---------------------|-----------------------------------------|-------------------------| 
B|---------------------|-----------------------------------------|-------------------------| 
G|---------------------|-----------------------------------------|-------------------------| 
D|---------------------|-----------------------------------------|-------------------------| 
A|-2-4-----------------|--4---2--0-----0-------------------------|------------------2---0--| 
E|---------------------|---------------------2-----------0-------|--------0------2---------| 

   you stood and  watched the wash of water wedge me  hopelessly   into the sea wall 
e|-----------------------------------------------------------------------------------| 
B|-----------------------------------------------------------------------------------| 
G|-----------------------------------------------------------------------------------| 
D|-----------------------------------------------------------------------------------| 
A|--------------0--2--------------0-2-4-----------4-2-0------------------------------| 
E|-----0-----2---------------------------------------------------2----------0--------| 

                                                     D   Bm      A 
   and there i stayed   and quickly decayed   and we all  swapped molecules 
e|--------------------|---------------------|--------2---2-------0----------| 
B|--------------------|---------------------|--------3---3-------2----------|in this last measure you start 
G|--------------------|---------------------|--------2---4-------2----------|strumming the chords after every  
D|--------------------|---------------------|--------0---4-------2----------|"lick" 
A|-----------2-0------|-------------2-------|--------0---2-------0----------|  
E|-0---2--------------|-----0----2----2-----|------------2-------0----------|  

                            Bm                         A                   Bm 
   now with the wave of my hand   i command you to see me   im more like a mountain this time 
e|--------------------------2---|----------------------0--|----------------2--------------------| 
B|--------------------------3---|----------------------2--|----------------3--------------------|  
G|--------------------------4---|----------------------2--|----------------4--------------------| 
D|--------------------------4---|------2----0------2---2--|----------------4--------------------| 
A|----------------------0---2---|---------------4------0--|--------------0-2------------------0-| 
E|--------------0----2------2---|----------------------0--|----0----2------2--------------------| 

     C#m                        A   F#m             E 
   a moving alpine   decked in fog  im concealed in snow clouds 
e|---4-------------|------------0---2---------------0-----------| 
B|---5-------------|------------2---2---------------0-----------| 
G|---6-------------|------------2---2---------------1-----------| 
D|---6-------------|------------2---4---------------2-----------| 
A|-2-4-------------|-4------2---0---4---------------2-----------| 
E|---4-------------|------------0---2---------------0-----------| 

                       A                      Bm                         C#m 
   youre the farmer below   and if youve seen my face once  then through twelve cloudy motnhs 
e|---------------------0--|-------------------2--------------------------4-------------------| 
B|---------------------2--|-------------------3--------------------------5-------------------| 
G|---------------------2--|-------------------4--------------------------6-------------------| 
D|---------------------2--|-------------------4--------------------------6-------------------| 
A|------------------2--0--|--------------0----2-------------0-----2------4-------------------| 
E|------------0--2-----0--|--------0-2--------2--------------------------4-------------------| 

            A            F#m         E 
   you will know that im there behind curtains 
e|----------0------------2-----------0---------| 
B|----------2------------2-----------0---------| 
G|----------2------------2-----------1---------| 
D|----------2------------4-----------2---------| 
A|-4---2----0------------4-----------2---------| 
E|----------0------------2-----------0---------| 
  
                       A                             F#m 
   youll know mountain light, though thick mouths of light 
e|---------------------0------------------------------2----| 
B|---------------------2------------------------------2----| 
G|---------------------2------------------------------2----| 
D|---------------------2------------------------------4----| 
A|-----------------2---0--------------------------2---4----| 
E|-------0----2--------0-------------0------2---------2----| 

   D   Bm   A 
          see me 
e|-2---2----0-----|| 
B|-3---3----2-----|| 
G|-2---4----2-----|| 
D|-0---4----2-----|| 
A|-0---2----0-----|| 
E|-2---2----0-----|| 
  

cifra enviadasem correções
enviado porenviada por:fernsantana
top 5 | mount eerie
top rock'n roll
Outras músicas do artista letras do(a) Mount Eerie
Top cifras »Top artistas »
Petaxxon Comunicação Online
Cifras.com.br - Melhor e mais completo site de cifras e tablaturas do Brasil
Mais de 1 milhão de acordes de músicas cadastradas desde 2003
As informações contidas no nosso site são colaborações de seus usuários e podem conter erros, sendo assim, não nos responsabilizamos sobre nenhuma destas.
close
menos
mais
close
Cor dos acordes:

Cor da letra:

 

save
close
close
 
redimensionar