Cifras e Tablaturas
Move

Move

Brontosaurus

Cifras Cancelar Versão de Impressão
cifras

Move - Brontosaurus

fixar na tela  
Exibindo: vídeo-aula ver clipes redimensionar
  

Intro 
D#|--------------------------------------|------------------------------------| 
A#|--------------------------------------|------------------------------------| 
F#|--------------------------------------|------------------------------------| 
C#|-----------------------0--0------2~~--|------------0--0------2~~-----------| 
G#|--2-------2--2------2--------3b-------|---------2--------3b----------------| 
C#|----3b----0--0--3b--------------------|--0--3b-----------------------------| 

D#|---------------------------|-----------------------------------------------| 
A#|---------------------------|-----------------------------------------------| 
F#|---------------------------|-----------------------------------------------| 
C#|------------0--0------2~~--|------------0----------------------------------| 
G#|---------2--------3b-------|---------2----4-2-0-2--------------------------| 
C#|--0--3b--------------------|--0--3b---------------3b-----------------------| 

Verse 
D#|---------------------------|----------------------------|      -| 
A#|---------------------------|----------------------------|       | 
F#|---------------------------|--3--3--3--3--3--3--3--3-3--|       | 
C#|--2--2--2--2--2--2--2--2---|--4--4--4--4--4--4--4--4-4--|       | 
G#|--2--2--2--2--2--2--2--2---|--4--4--4--4--4--4--4--4-4--|       | 
C#|--0--0--0--0--0--0--0--0---|--2--2--2--2--2--2--2--2-2--|       | 
                                                                   | 
D#|---------------------------|----------------------------|       | 
A#|----------7b---5h7---5-5~~-|------------------2b---3/5~-|       | 
F#|-------------------6-------|-------------3b------3------| verse | 
C#|---------------------------|----------------4-----------| lead  |  
G#|---------------------------|----------------------------|       | 
C#|---------------------------|----------------------------|       | 
                                                                   | 
                                                                   | x 2 
D#|-----------------------------|-----------------------------|    | 
A#|-----------------------------|-----------------------------|    | 
F#|--6--6--6--6--6--6--6-6------|-----------------------------|    | 
C#|--7--7--7--7--7--7--7-7--7\--|---------------0-------------|    | 
G#|--7--7--7--7--7--7--7-7--5\--|------------2----4-2-0-2-----|    | 
C#|--5--5--5--5--5--5--5-5------|--0--0--3b---------------3b--|    | 
                                                                   | 
D#|-----------------------10b--r|                                  | 
A#|----------------10br-8-------|                                  | 
F#|-----------------------------| verse                            | 
C#|-----------------------------| lead                             | 
G#|-----------------------------|                                  | 
C#|-----------------------------|                                 -| 

Chorus 
D#|---------------------------|---------------------------|       -| 
A#|---------------------------|---------------------------|        | 
F#|---------------------------|--3--3--3--3--3--3--3--3-3-|        | 
C#|--2--2--2--2--2--2--2--2---|--4--4--4--4--4--4--4--4-4-|        | 
G#|--2--2--2--2--2--2--2--2---|--4--4--4--4--4--4--4--4-4-|        | 
C#|--0--0--0--0--0--0--0--0---|--2--2--2--2--2--2--2--2-2-|        |      
                                                                   | 
D#|---------------------------|---------------------------|        | 
A#|--------------------7b--7b-|-------------------7b--7br-|        | 
F#|------------6h9-9p6--------|-----------6h9-9p6---------| verse  | 
C#|---------------------------|---------------------------| lead   |  
G#|---------------------------|---------------------------|        | 
C#|---------------------------|---------------------------|        | 
                                                                   | x 2 
D#|-----------------------------|-----------------------------|    |    
A#|-----------------------------|-----------------------------|    | 
F#|--6--6--6--6--6--6--6-6------|-----------------------------|    | 
C#|--7--7--7--7--7--7--7-7--7\--|---------------0-------------|    | 
G#|--7--7--7--7--7--7--7-7--5\--|------------2----4-2-0-2-----|    | 
C#|--5--5--5--5--5--5--5-5------|--0--0--3b---------------3b--|    | 
                                                                   | 
D#|------------7br---3br--------|                                  | 
A#|----------------5-----0-5br~-|                                  | 
F#|-----------------------------|                                  | 
C#|-----------------------------|                                  | 
G#|-----------------------------|                                  | 
C#|-----------------------------|                                 -| 

 Break} 
D#|------------------------------|----------------------------|   -| 
A#|------------------------------|----------------------------|    | 
F#|------------------------------|----------------------------|    | 
C#|---------------0--0------2~~--|------------0--0------2~~---|    | 
G#|------------2--------3b-------|---------2--------3b--------|    | 
C#|--0--0--3b--------------------|--0--3b---------------------|    | 
                                                                   | x 2 
D#|---------------------------|----------------------------|       | 
A#|---------------------------|----------------------------|       | 
F#|---------------------------|----------------------------|       | 
C#|------------0--0------2~~--|------------0----------~~---|       | 
G#|---------2--------3b-------|---------2----4-2-0-2-------|       | 
C#|--0--3b--------------------|--0--3b---------------3b----|      -| 

Verse 
D#|---------------------------|----------------------------|      -| 
A#|---------------------------|----------------------------|       | 
F#|---------------------------|--3--3--3--3--3--3--3--3-3--|       | 
C#|--2--2--2--2--2--2--2--2---|--4--4--4--4--4--4--4--4-4--|       | 
G#|--2--2--2--2--2--2--2--2---|--4--4--4--4--4--4--4--4-4--|       | 
C#|--0--0--0--0--0--0--0--0---|--2--2--2--2--2--2--2--2-2--|       | 
                                                                   | 
D#|---------------------------|----------------------------|       | 
A#|----------7b---5h7---5-5~~-|------------------2b---3/5~-|       | 
F#|-------------------6-------|-------------3b------3------| verse | 
C#|---------------------------|----------------4-----------| lead  |  
G#|---------------------------|----------------------------|       | 
C#|---------------------------|----------------------------|       | 
                                                                   | x 2 
                                                                   | 
D#|-----------------------------|-----------------------------|    | 
A#|-----------------------------|-----------------------------|    | 
F#|--6--6--6--6--6--6--6-6------|-----------------------------|    | 
C#|--7--7--7--7--7--7--7-7--7\--|---------------0-------------|    | 
G#|--7--7--7--7--7--7--7-7--5\--|------------2----4-2-0-2-----|    | 
C#|--5--5--5--5--5--5--5-5------|--0--0--3b---------------3b--|    | 
                                                                   | 
D#|-----------------------10b--r|                                  | 
A#|----------------10br-8-------|                                  | 
F#|-----------------------------| verse                            | 
C#|-----------------------------| lead                             | 
G#|-----------------------------|                                 -| 
C#|-----------------------------| 
  
 Chorus 
D#|---------------------------|---------------------------|        
A#|---------------------------|---------------------------|         
F#|---------------------------|--3--3--3--3--3--3--3--3-3-|         
C#|--2--2--2--2--2--2--2--2---|--4--4--4--4--4--4--4--4-4-|         
G#|--2--2--2--2--2--2--2--2---|--4--4--4--4--4--4--4--4-4-|        
C#|--0--0--0--0--0--0--0--0---|--2--2--2--2--2--2--2--2-2-|              
                                                                   
D#|---------------------------|---------------------------|         
A#|--------------------7b--7b-|-------------------7b--7br-|         
F#|------------6h9-9p6--------|-----------6h9-9p6---------| verse   
C#|---------------------------|---------------------------| lead     
G#|---------------------------|---------------------------|         
C#|---------------------------|---------------------------|         
                                                                  
D#|-----------------------------|-----------------------------|        
A#|-----------------------------|-----------------------------|     
F#|--6--6--6--6--6--6--6-6------|-----------------------------|     
C#|--7--7--7--7--7--7--7-7--7\--|---------------0-------------|     
G#|--7--7--7--7--7--7--7-7--5\--|------------2----4-2-0-2-----|     
C#|--5--5--5--5--5--5--5-5------|--0--0--3b---------------3b--|     
                                                                   
D#|------------7br---3br--------|                                   
A#|----------------5-----0-5br~-|                                   
F#|-----------------------------|                                   
C#|-----------------------------|                                   
G#|-----------------------------|                                   
C#|-----------------------------|    

D#|---------------------------|---------------------------|        
A#|---------------------------|---------------------------|         
F#|---------------------------|--3--3--3--3--3--3--3--3-3-|         
C#|--2--2--2--2--2--2--2--2---|--4--4--4--4--4--4--4--4-4-|         
G#|--2--2--2--2--2--2--2--2---|--4--4--4--4--4--4--4--4-4-|        
C#|--0--0--0--0--0--0--0--0---|--2--2--2--2--2--2--2--2-2-|              
                                                                   
D#|---------------------------|---------------------------|         
A#|--------------------7b--7b-|-------------------7b--7br-|  slight        
F#|------------6h9-9p6--------|--------4/6--9-9p6---------| variation   
C#|---------------------------|---------------------------| on this     
G#|---------------------------|---------------------------| lead part        
C#|---------------------------|---------------------------|         
                                                                  
D#|-----------------------------|-----------------------------|        
A#|-----------------------------|-----------------------------|     
F#|--6--6--6--6--6--6--6-6------|-----------------------------|     
C#|--7--7--7--7--7--7--7-7--7\--|---------------0-------------|     
G#|--7--7--7--7--7--7--7-7--5\--|------------2----4-2-0-2-----|     
C#|--5--5--5--5--5--5--5-5------|--0--0--3b---------------3b--|     
                                                                   
D#|------------7br---3br--------|                                   
A#|----------------5-----0-5br~-|                                   
F#|-----------------------------|                                   
C#|-----------------------------|                                   
G#|-----------------------------|                                   
C#|-----------------------------|                                  

D#|------------------------------|----------------------------|    
A#|------------------------------|----------------------------|     
F#|------------------------------|----------------------------|     
C#|---------------0--0------2~~--|------------0--0------2~~---|    
G#|------------2--------3b-------|---------2--------3b--------|    
C#|--0--0--3b--------------------|--0--3b---------------------|     
                                                                   
D#|-------------------------|-----------------------|---------|        
A#|-------------------------|----------------2------|---------|        
F#|-------------------------|--9------7------2------|----4\---|       
C#|------------0--0------2~-|--9------7------2------|----4\---|        
G#|---------2--------3b-----|--7------5------0------|--X------|       
C#|--0--3b------------------|--7------5-------------|--X------|           

Chorus 2 
             short note                            short note 
D#|----------------v--------------------|----------------v--------------------|    -| 
A#|-------------------------------------|-------------------------------------|     | 
F#|---------------------------4-4-6\----|---------------------------6-6-8\----|     | 
C#|----------------2----2-4/6-----------|----------------4----4-6/8-----------|     | 
G#|----------2-2-4----------------------|----------4-4-6----------------------|     | 
C#|--0-0h2/4----------------------------|--2-2h4/6----------------------------|     | 
                                                                                    | x 2 
             short note                                                             |  
D#|----------------v--------------------|-------------------------------------|     | 
A#|-------------------------------------|-----------------2-------------------|     | 
F#|----------------------------9-9-11\--|--9------7----0--2------------4\-----|     | 
C#|----------------7----7-9/11----------|--9------7-------2------------4\-----|     | 
G#|----------7-7-9----------------------|--7------5-------0----------X--------|     | 
C#|--5-5h7/9----------------------------|--7------5------------------X--------|    -| 

             short note                            short note 
D#|----------------v--------------------|----------------v--------------------|     
A#|-------------------------------------|-------------------------------------|      
F#|---------------------------4-4-6\----|---------------------------6-6-8\----|      
C#|----------------2----2-4/6-----------|----------------4----4-6/8-----------|     
G#|----------2-2-4----------------------|----------4-4-6----------------------|      
C#|--0-0h2/4----------------------------|--2-2h4/6----------------------------|      
                                                                                    
             short note                                                              
D#|----------------v--------------------|-------------------------------------|      
A#|-------------------------------------|-----------------2----------2-X-X----| 
F#|-------------------------------------|--9------7----0--2----------2-X-X----|      
C#|---------------------4-----4-4-6\----|--9------7-------2----------2-X-X----|      
G#|----------2-2-4-2------4/6-----------|--7------5-------0----------0-X-X----|  
C#|--0-0h2/4----------------------------|--7------5---------------------------| 

 Solo} 
         (hold  bend)                 (hold  bend---------------) 
D#|-------------------------------------------------------------------| 
A#|--15-15fb-15-15-15~~----15pbr--15-15fb--15-15-15~~-15~~~15~~~15r---| 
F#|---------------------16--------16----------------------------------| 
C#|-------------------------------------------------------------------| 
G#|-------------------------------------------------------------------| 
C#|-------------------------------------------------------------------| 

D#|--------------------------------------------------------12-12-----------| 
A#|--15fb-15fb-15fbr-----------15--------------------------12-12-----------| 
F#|-----------------g14fb-14-----14--14fb---14-14-14-14fb---------14fb-12--| 
C#|---------------------(hold-bend)-----(hold--bend)-----------------------| 
G#|------------------------------------------------------------------------| 
C#|------------------------------------------------------------------------| 

D#|----------------------------------------------17fb--17-15----------| 
A#|--17fb---17~~~-----------------15-17-17fbr-15-------------17-17~~--| 
F#|----------------------------16-------------------------------------| 
C#|-------------------------------------------------------------------| 
G#|-------------------------------------------------------------------| 
C#|-------------------------------------------------------------------| 

                        (hold bend----------------) 
D#|------------------------------------------------------19fbr--19-17-| 
A#|--17-------17-19-19-19fb~~---19-19~~--19-19-19-19r-17--------------| 
F#|-----17-18---------------------------------------------------------| 
C#|-------------------------------------------------------------------| 
G#|-------------------------------------------------------------------| 
C#|-------------------------------------------------------------------| 

D#|---------19fbr---19p17----------------|-------------------------------| 
A#|---17-17--------------19~~----17\-----|--------------------3----------| 
F#|--------------------------------------|--------------0-2b---2br-0-----| 
C#|--------------------------------------|----------------------------2--| 
G#|--------------------------------------|--2---2-0-2--------------------| 
C#|--------------------------------------|--0-------0--------------------| 

 Post-solo 
D#|-----------------------------------|-------------------------------------| 
A#|-----------------------------------|-------------------------------------| 
F#|---------------------------4-4-6\--|---------------------------6-6-8\----| 
C#|----------------2----2-4/6---------|----------------4----4-6/8-----------| 
G#|----------2-2-4--------------------|----------4-4-6----------------------| 
C#|--0-0h2/4--------------------------|--2-2h4/6----------------------------| 

D#|-------------------------------------|-----------------------------------|    
A#|-------------------------------------|-----------------------------------|   
F#|----------------------------9-9-11\--|-----------------------------------|      
C#|----------------7----7-9/11----------|----------------2----2-2/4-4br-2---|      
G#|----------7-7-9----------------------|----------2-2-4--------------------|      
C#|--5-5h7/9----------------------------|--0-0h2/4--------------------------|  


D#|-----------------------------------|-------------------------------------| 
A#|-----------------------------------|-------------------------------------| 
F#|---------------------------4-4-6\--|---------------------------6-6-8\----| 
C#|----------------2----2-4/6---------|----------------4----4-6/8-----------| 
G#|----------2-2-4--------------------|----------4-4-6----------------------| 
C#|--0-0h2/4--------------------------|--2-2h4/6----------------------------| 

D#|-------------------------------------|    
A#|-------------------------------------|  
F#|----------------------------9-9-11\--|    
C#|----------------7----7-9/11----------|    
G#|----------7-7-9----------------------|     
C#|--5-5h7/9----------------------------| 

 Outro 
D#|--------------|--------------|--2----------------------------------| 
A#|--------------|--2----2------|--3----------------------------------| 
F#|--1----1------|--2----2------|--2----2----1------------------------| 
C#|--2----2------|--2----2------|--0----2----2------------------------| 
G#|--2----2------|--0----0------|-------0----2------------------------| 
C#|--0----0------|--------------|------------0------------------------| 

************************************ 

| ~    Vibrato 
| b    Bend 
| h    Hammer-on 
| /    Slide up 
| \    Slide down 
| r    Release 
| br   Bend release 
| p    Pull-off 
| pbr  Pre-bend release 
| g    Grace note 
  

************************************ 
  

top 5 | move
top rock'n roll
Outras músicas do artista letras do(a) Move
Top cifras »Top artistas »
Petaxxon Comunicação Online
Cifras.com.br - Melhor e mais completo site de cifras e tablaturas do Brasil
Mais de 1 milhão de acordes de músicas cadastradas desde 2003
As informações contidas no nosso site são colaborações de seus usuários e podem conter erros, sendo assim, não nos responsabilizamos sobre nenhuma destas.
close
menos
mais
close
Cor dos acordes:

Cor da letra:

 

save
close
close
 
redimensionar