Cifras e Tablaturas
Muddy Waters

Muddy Waters

The Blues Had A Baby And They Named It Rock And Roll

Cifras Cancelar Versão de Impressão Print

Muddy Waters - The Blues Had A Baby And They Named It Rock And Roll

Tom: E

  • 0:00 / 0:00
  			 Intro 
  Q=116(8=s8) 
  N.C.                  A 
 4/4 
  Gtr I 
                            |-3-| |-3-| |-3-|      |--3--| 
  W          W          E E E E E E E E E E E   Q  Q     E +Q    Q 
|----------|----------|-----------------------|-----------------------|| 
|----------|----------|-------5-----4-----3---|-2---------------------|| 
|----------|----------|-----------------------|-----------------------|| 
|----------|----------|---7-5---5-4---4-3---3-|-2--------2-(2)--------|| 
|----------|----------|-----------------------|-----------------------|| 
|----------|----------|-----------------------|----3b4-----------3b5--|| 
| 
| Gtr II 
| W          W          W                       Q  E   E   +E  E Q 
|----------|----------|-----------------------|-----------------------|| 
|----------|----------|-----------------------|----5-----------5------|| 
|----------|----------|-----------------------|--------7---(7)--------|| 
|----------|----------|-----------------------|-----------------------|| 
|----------|----------|-----------------------|-7---------------------|| 
|----------|----------|-----------------------|-----------------------|| 


 1st Verse 
  A                   D 
  +e  Q   E e E E E   Q  E E e E   +E  e 
|-------------------|--------------------| 
|-------------------|--------------------| 
|-----2-----2-----2-|--------2---------2-| 
|-------------2-5---|------4-------------| 
|---------4---------|----------3b4-(3)---| 
|-(3)---------------|--------------------| 
| 
|  Q    Q   E E E E   Q  E E E E    E  E 
|-------9---8-9---5-|-8--7-8-------------| 
|-------8---7-8---5-|-8--8-7-------------| 
|-------------------|---------------5----| 
|-------------------|------------------7-| 
|-------------------|--------------------| 
|-------------------|----------8---------| 


  A 
          |--3--|       |3| |--3--| |-3-| |---3----| 
  Q   E E E E   E E E   E Q E E   E E E E E    +E  E 
|---------------------|------------------------------| 
|---------------------|------------------------------| 
|---------------------|-0-2-2-2---2-2-0--------------| 
|---------2-2---2-5-0-|-----------------2------------| 
|-----3-4-------------|-------------------5pb6r(5)p3-| 
|---------------------|------------------------------| 
| 
| E E Q   E   E   Q     Q   E   E   H 
|---9-9---8---9-------|-9---8---9--------------------| 
|---8-8---7---8-------|-8---7---8--------------------| 
|---------------------|------------------------------| 
|---------------------|------------------------------| 
|---------------------|------------------------------| 
|---------------------|------------------------------| 


  D 
              |--3--| 
  E E E E E E E E   E   E E E E E E     E   E 
|---------------------|-----------------------| 
|---------------------|-----------------------| 
|---------2-x-5-5---0-|-2-2-----2-------5b6-0-| 
|-----3-4-4-x---------|-----3-4---------------| 
|-5-------------------|-----------3-----------| 
|---5-----------------|-----------------------| 
| 
| Q   Q   E Q     E     Q   E E E Q         E 
|---------------------|-----------------------| 
|---------------------|-----------------------| 
|-----5---4-5-----x---|-5---4-5---------------| 
|-----4---5-7-----x---|-7---3-4---------------| 
|---------------------|-----------3b3.5-----4-| 
|---------------------|-----------------------| 


  A 
                       |-3-| |--3--| |-3-| |-3-| 
  E E E E E E  E E   a E E E E E   E E E E E E E 
|------------------|-----------------------------| 
|------------------|-----------------------------| 
|------------------|-----------------------------| 
|---------2-2--5-0-|-5s7-7-7-7-7---7-7p5---------| 
|-0-0-3-4----------|---------------------7-6p5---| 
|------------------|---------------------------8-| 
| 
| Q   Q   E Q.         Q     E   E   H 
|-----9---8-9------|---9-----8---9---------------| 
|-----8---7-8------|---8-----7---8---------------| 
|------------------|-----------------------------| 
|------------------|-----------------------------| 
|------------------|-----------------------------| 
|------------------|-----------------------------| 


  E                 D 
  PM----------------------| 
                            |-3-| |-3-| 
  E E E E E E E E   E E E E E E E E E E 
|-----------------|---------------------| 
|-----------------|---------------------| 
|-----------------|---------------------| 
|-----2-2-0-0-2-2-|-4-----0-----5-------| 
|-2-2-------------|---0-3---5s7---6s5-3-| 
|-----------------|---------------------| 
| 
| Q   Q   E Q   E   Q   E E Q     Q 
|-----------------|---------------------| 
|-----5---3-5---5-|---------------------| 
|-----------------|-----5-5-2-----------| 
|-----------------|-4-------------------| 
|-----------------|---------------------| 
|-----------------|---------------------| 


  A                             E 
      |-3-| |-3-| |-3-| 
  E E E E E E E E E E E   E E E E +Q   Q 
|-----------------------|------------------|| 
|-------5-----4-----3---|---0---3-(3)------|| 
|-----------------------|---0-0-1-(1)------|| 
|---2-5---5-4---4-3---3-|-2-----2-(2)------|| 
|-0---------------------|------------------|| 
|-----------------------|------------------|| 
| 
|     |-3-| |-3-| |-3-| 
| Q   E E E E E E E E E   Q   Q    H 
|-----------------------|------------------|| 
|-----------------------|------------------|| 
|-----------------------|------------------|| 
|-----5-5-5-4-4-4-3-3-3-|-2----------------|| 
|-----------------------|------------------|| 
|-----------------------|------------------|| 


 2nd & 4th Verses 
  $ 
  A                 D                     A 
  PM----------------------------------------------------------------------| 
  E E E E E E E E   E E E E E E E     E   E E E E E E E E   E E E E E E E E 
|-----------------|---------------------|-----------------|------------------| 
|-----------------|---------------------|-----------------|------------------| 
|-----------------|-5-------------------|-2---------------|------------------| 
|---------2-2-4-2-|---2-4-2-4-2---------|---2-----2-2-4-2-|-2-2-4-2-5-2-4-2--| 
|-0-0-3-4---------|-------------3b3.5-4-|-----3-4---------|------------------| 
|-----------------|---------------------|-----------------|------------------| 
| 
| Q   Q   E E E E   Q   E E E E E     E   E E Q   E E Q     Q   E E H 
|-----9---8-9---5-|-8---7-8-------------|---9-9---8-9-----|-9---8-9----------| 
|-----8---7-8---5-|-8---8-7-------------|---8-8---7-8-----|-8---7-8----------| 
|-----------------|-------------5-------|-----------------|------------------| 
|-----------------|-------------------7-|-----------------|------------------| 
|-----------------|---------------------|-----------------|------------------| 
|-----------------|-----------8---------|-----------------|------------------| 


  D 
  E E E E E E E   E   E E E E q       E   E 
|-------------------|-----------------------| 
|-------------------|-----------------------| 
|---------2-2-4b5-0-|---------2-------5b6-0-| 
|-4-4-2-4-----------|-4-4-3-4---------------| 
|-------------------|-----------------------| 
|-------------------|-----------------------| 
| 
| Q   Q   E Q     E   Q   E E E Q         E 
|-------------------|-----------------------| 
|-------------------|-----------------------| 
|-----5---4-5-----x-|-5---4-5---------------| 
|-----4---5-7-----x-|-7---3-4---------------| 
|-------------------|-----------3b3.5-----4-| 
|-------------------|-----------------------| 


  A 
       |-3-| |--3---| |-3-|        |--3--| |-3-| |-3-| 
  Q  a E E E E E    E E E E   Q  a E E   E E E E E E E 
|---------------------------|---------------------------| 
|---------------------------|---------------------------| 
|---------------------------|---------------------------| 
|----5s7-7-7-7-5------------|----5s7-7---7-7p5----------| 
|-------------------7-6p5---|------------------7-6p5----| 
|-------------------------8-|-5----------------------8--| 
| 
| Q    Q     E   Q.           Q    E   E   H 
|------9-----8---9----------|-9----8---9----------------| 
|------8-----7---8----------|-8----7---8----------------| 
|---------------------------|---------------------------| 
|---------------------------|---------------------------| 
|---------------------------|---------------------------| 
|---------------------------|---------------------------| 


             To Coda 
  E                    D 
                                  |---3---| 
  E E E E Q     q      Q  Q   E E E   +E  E 
|--------------------|----------------------| 
|--------------------|----------------------| 
|--------------------|----5---4-5-5b6-(5)-0-| 
|-----2-2------------|-4--------------------| 
|-2-2-----4b5---4----|----------------------| 
|--------------------|----------------------| 
| 
| Q   Q   E   Q   E    Q  E E Q   Q 
|--------------------|----------------------| 
|-----5---3---5---5--|----------------------| 
|--------------------|----5-5-2-------------| 
|--------------------|-4--------------------| 
|--------------------|----------------------| 
|--------------------|----------------------| 


  A                                   E 
      |-3-| |-3-| |-3-|   |-3-| |-3-| 
  E E E E E E E E E E E   E E E E E E Q  E E 
|-----------------------|---------------------|| 
|-------5-----4-----3---|---2-----0--------0--|| 
|-----------------------|------------------0--|| 
|-2-2-5---5-4---4-3---3-|-2---2-1---1---------|| 
|-----------------------|---------------------|| 
|-----------------------|-------------0-------|| 
| 
|     |-3-| |-3-| |-3-| 
| Q   E E E E E E E E E   Q     Q     H 
|-----------------------|---------------------|| 
|-----------------------|---------------------|| 
|-----------------------|---------------------|| 
|-----5-5-5-4-4-4-3-3-3-|-2-------------------|| 
|-----------------------|---------------------|| 
|-----------------------|---------------------|| 


 Guitar Solo 
  A 
   |3-|  |--3--|      |---3---|      |---3---| 
  +E  Q  E  E  E      E  E    E      E  E    E 
|----------12-----------12-------------12----------| 
|-(0)-0-13----13pb14-13------13pb14-13------13pb14-| 
|-(0)-0--------------------------------------------| 
|--------------------------------------------------| 
|--------------------------------------------------| 
|--------------------------------------------------| 
| 
|  Q     Q            E    E         E    E 
|--------9------------8----9--------------5--------| 
|--------8------------7----8--------------5--------| 
|--------------------------------------------------| 
|--------------------------------------------------| 
|--------------------------------------------------| 
|--------------------------------------------------| 


  D                                                     A 
   |--3--|      |---3---|     |---3---|  |----3-----|        |--3--|      |---3---|      |--3--| 
   E  E  E      E  E    E     E  E    E  E  a  E    E   Q    E  E  E      E  E    E      E  E  E 
|----12-----------12----------------------------------|--------12-----------12-------------12----| 
|-13----13pb14-13------13pb14-------------------------|-----13----13pb14-13------13pb14-13----13-| 
|-------------------------------12------12------------|------------------------------------------| 
|------------------------------------14----13p12------|------------------------------------------| 
|--------------------------------------------------15-|------------------------------------------| 
|-----------------------------------------------------|------------------------------------------| 
| 
|  Q            E    E        E    E     E       E      E E  Q            E    E         Q 
|--8------------7----8--------------------------------|---9--9------------8----9-----------------| 
|--8------------8----7--------------------------------|---8--8------------7----8-----------------| 
|----------------------------------------5------------|------------------------------------------| 
|------------------------------------------------7----|------------------------------------------| 
|-----------------------------------------------------|------------------------------------------| 
|----------------------------------8------------------|------------------------------------------| 


   |----3-----|                     |---3----| 
   Q  Q       Q       E     E      +E   +E   E 
|----15b16---15b17---15b17-15b17==(15)r(15)-12-| 
|----------------------------------------------| 
|----------------------------------------------| 
|----------------------------------------------| 
|-14-------------------------------------------| 
|----------------------------------------------| 
| 
|  Q       E       E  H 
|--9-------8-------9---------------------------| 
|--8-------7-------8---------------------------| 
|----------------------------------------------| 
|----------------------------------------------| 
|----------------------------------------------| 
|----------------------------------------------| 


  D 
      ~~~~~~~~~~~~~~~ 
                           |----3-----|   |--3--| |---3----|    |----3----| |---3---| 
   e  Q         +E   E S S E    +E    E   E   E E E    E   E    E E       E E   E   E 
|-15-15pb17====(15)r---x----------------|-------5------5--------5---------------------| 
|------------------------x--------------|-----5---8b10-----8b10---8-------5-----5-----| 
|--------------------------7pb9r(7)---5-|-7b9-------------------------------7b8-----7-| 
|---------------------------------------|---------------------------------------------| 
|---------------------------------------|---------------------------------------------| 
|---------------------------------------|---------------------------------------------| 
| 
|  Q         Q       E Q            E     Q       E      E      E   Q             E 
|---------------------------------------|---------------------------------------------| 
|---------------------------------------|---------------------------------------------| 
|------------5-------4-5------------x---|-5-------4------5----------------------------| 
|------------4-------5-7------------x---|-7-------3------4----------------------------| 
|---------------------------------------|---------------------------3b3.5---------4---| 
|---------------------------------------|---------------------------------------------| 


  A 
            ~~~~                        PM--| 
  |-3-| |3|              |-3-| |3|      |-3-| 
  E e E E Q Q       Q    E E e E Q   Q  E E E 
|-----------8b10----5--|-5---5---5------5-----| 
|---------5------------|---5---8-5--------8-5-| 
|-5-7-5-7--------------|----------------------| 
|----------------------|----------------------| 
|----------------------|----------------------| 
|----------------------|----------------------| 
| 
| Q     Q   E    Q.      Q     E   E H 
|-------9---8----9-----|-9-----8---9----------| 
|-------8---7----8-----|-8-----7---8----------| 
|----------------------|----------------------| 
|----------------------|----------------------| 
|----------------------|----------------------| 
|----------------------|----------------------| 


  E 
  |--3--| 
  E    +Q   E   E    +E  E E   +E 
|-----------7----------------------| 
|-7b9==(7)-(7)r-7pb9r(7)-5---------| 
|--------------------------7b9-(7)-| 
|----------------------------------| 
|----------------------------------| 
|----------------------------------| 
| 
| Q         Q         E  Q      E 
|----------------------------------| 
|-----------5---------3--5------5--| 
|----------------------------------| 
|----------------------------------| 
|----------------------------------| 
|----------------------------------| 


  D                              A 
                             ~~~~~~~~ 
  |---3---|          |-3-|            |--3--| |--3---|    |--3---| 
  E E    +E  +E  E a E E E E E   +Q   E   E E E    E E    E E    E 
|------------------------5---5-|-(5)--------5------5------5------5-| 
|-8----------------3s5-5---8---|----------5---8b10---8b10---8b10---| 
|---7pb9r(7)-(7)-5-------------|------7b9--------------------------| 
|------------------------------|-----------------------------------| 
|------------------------------|-----------------------------------| 
|------------------------------|-----------------------------------| 
| 
|                                     |--3--| |--3---|    |--3---| 
| Q           E  E   Q     Q      Q   E   E E E    E E    E E    E 
|------------------------------|-----------------------------------| 
|------------------------------|-----------------------------------| 
|-------------5--5---2---------|-----------------------------------| 
|-4----------------------------|------5---5-5-4----4-4----3-3----3-| 
|------------------------------|-----------------------------------| 
|------------------------------|-----------------------------------| 


  |--3---|    |--3---| |--3---|    |--3---| 
  E    E E    E E    E E    E E    E E    E 
|------5------5------5------5------5------5-| 
|-8b10---8b10---8b10---8b10---8b10---8b10---| 
|-------------------------------------------| 
|-------------------------------------------| 
|-------------------------------------------| 
|-------------------------------------------| 
| 
| Q           Q        H 
|-------------------------------------------| 
|-------------------------------------------| 
|-------------------------------------------| 
|-2-----------------------------------------| 
|-------------------------------------------| 
|-------------------------------------------| 


  |--3---|    |--3---| |---3----| |---3----| 
  E    E E    E E    E E    E   E E E      E 
|------5------5------5------5---8-5--------5-| 
|-8b10---8b10---8b10---8b10---------8b10-----| 
|--------------------------------------------| 
|--------------------------------------------| 
|--------------------------------------------| 
|--------------------------------------------| 
| 
| Q           Q        E      E   E      E 
|-------------9--------8------9----------5---| 
|-------------8--------7------8----------5---| 
|--------------------------------------------| 
|--------------------------------------------| 
|--------------------------------------------| 
|--------------------------------------------| 


  D                                          A 
  |--3--| |--3--| |---3----|    |---3----|   |--3--|    |-3-| |---3----| |-3-| 
  E E S S E E   E E    E   E    E E      E   E E   E    E E E E    E   E E E E 
|-8-5-------8---5------5--------5--------5-|-8-5----------8-5------5---8-5---5-| 
|-----8p5---------8b10-----8b10---8b10-----|-------8b10-------8b10---------8---| 
|------------------------------------------|-----------------------------------| 
|------------------------------------------|-----------------------------------| 
|------------------------------------------|-----------------------------------| 
|------------------------------------------|-----------------------------------| 
| 
| Q       E   E   E      E      E      E     E   E      Q     E      E   Q 
|-8-------7---8----------------------------|-----9------9-----8------9---------| 
|-8-------8---7----------------------------|-----8------8-----7------8---------| 
|-------------------------------5----------|-----------------------------------| 
|--------------------------------------7---|-----------------------------------| 
|------------------------------------------|-----------------------------------| 
|------------------------8-----------------|-----------------------------------| 


  |----3----|       |-----3-----| 
  Q Q       Q       Q     Q     Q 
|---8-------8-------8-----8-----8------| 
|---7b7.5---7b7.5---7b7.5-7b7.5-7b7.5--| 
|---8b8.5---8b8.5---8b8.5-8b8.5-8b8.5--| 
|--------------------------------------| 
|--------------------------------------| 
|--------------------------------------| 
| 
| Q       E       E H 
|-9-------8-------9--------------------| 
|-8-------7-------8--------------------| 
|--------------------------------------| 
|--------------------------------------| 
|--------------------------------------| 
|--------------------------------------| 


  D 
                                                                            PM| 
  |------3------|     |------3------|         |------3------| 
  Q     Q       Q     Q       Q     Q         Q     Q       Q       Q       e E 
|-8-----8-------8-----8-------8-----8-------|-8-----8-------8-------7------------| 
|-7b7.5-7b7.5---7b7.5-7b7.5---7b7.5-7b7.5---|-7b7.5-7b7.5---7b7.5----------------| 
|-8b8.5-8b8.5---8b8.5-8b8.5---8b8.5-8b8.5---|-8b8.5-8b8.5---8b8.5---7-------5-7--| 
|-------------------------------------------|------------------------------------| 
|-------------------------------------------|------------------------------------| 
|-------------------------------------------|------------------------------------| 
| 
| Q           Q       E     Q             E   Q           E       E E Q       E 
|-------------------------------------------|------------------------------------| 
|-------------------------------------------|------------------------------------| 
|-------------5-------4-----5-------------x-|-5-----------4-------5--------------| 
|-------------4-------5-----7-------------x-|-7-----------3-------4--------------| 
|-------------------------------------------|-------------------------3b3.5---4--| 
|-------------------------------------------|------------------------------------| 


  A 
        |-3-|   |--3---| |-3-|     |-3-|            |---3---| 
  Q     E E E a E E    E E E E   a E E E Q   Q     +E     E E 
|------------------------------|------------------------------| 
|-5---------------8------8---8-|-------------5-----(5)--------| 
|-5tr6--4-----7s9------9---9---|-8s7-5---7---5tr6--(5tr6)-5---| 
|---------5-5------------------|-------7--------------------7-| 
|------------------------------|------------------------------| 
|------------------------------|------------------------------| 
| 
| Q     Q       E   Q.             Q     E E H 
|-------9-------8---9----------|---9-----8-9------------------| 
|-------8-------7---8----------|---8-----7-8------------------| 
|------------------------------|------------------------------| 
|------------------------------|------------------------------| 
|------------------------------|------------------------------| 
|------------------------------|------------------------------| 


  E 
  |--3--| |-3-| |--3--| |--3--| 
  E   E E E E E E E   E E E   E 
|-------5---5-8-5-7-----5--------| 
|-----5---8-----------7---8---5--| 
|-7b9----------------------------| 
|--------------------------------| 
|--------------------------------| 
|--------------------------------| 
| 
| Q       Q     E   Q       E 
|--------------------------------| 
|---------5-----3---5-------5----| 
|--------------------------------| 
|--------------------------------| 
|--------------------------------| 
|--------------------------------| 


  D                                       A 
   |--3--|  |---3---|  |--3--|  |--3--| 
   E  E  E  E  E    E  E  E  E  E  E  E    Q  Q      Q      E       E 
|----------12-11---10-------------------|-----2s====12-----15b17---15b17====| 
|-------10------------13p10-12p10----12-|-10--------------------------------| 
|---------------------------------11----|-----------------------------------| 
|-10s12---------------------------------|-----------------------------------| 
|---------------------------------------|-----------------------------------| 
|---------------------------------------|-----------------------------------| 
| 
|                                             |-3-|  |-3-|  |------3------| 
|  Q        E    E     Q        Q          Q  E E E  E E E  E    E        E 
|---------------------------------------|-----------------------------------| 
|---------------------------------------|-----------------------------------| 
|-----------5----5-----2----------------|-----------------------------------| 
|--4------------------------------------|-----5-5-5--4-4-4--3----3--------3-| 
|---------------------------------------|-----------------------------------| 
|---------------------------------------|-----------------------------------| 


    |-3--|     |--3--|       |-3--| 
   +E    Q     Q     E      +Q    E     Q 
|-(15)r-15b17-15b17-15b17==(15)r-15b17-15b17---|| 
|----------------------------------------------|| 
|----------------------------------------------|| 
|----------------------------------------------|| 
|----------------------------------------------|| 
|----------------------------------------------|| 
| 
|   Q          Q             H 
|----------------------------------------------|| 
|----------------------------------------------|| 
|----------------------------------------------|| 
|---2------------------------------------------|| 
|----------------------------------------------|| 
|----------------------------------------------|| 


 3rd Verse 
  A                       D 
          ~~~~ 
   E     +Q.    Q   Q     W 
|-15b17-(15)------------|----------------| 
|-----------------------|----------------| 
|-----------------------|----------------| 
|-----------------------|----------------| 
|-----------------------|----------------| 
|-----------------------|----------------| 
| 
|  Q         Q  E E E E   Q  E E E E E E 
|------------9--8-9---5-|-8--7-8---------| 
|------------8--7-8---5-|-8--8-7---------| 
|-----------------------|------------5---| 
|-----------------------|--------------7-| 
|-----------------------|----------------| 
|-----------------------|----------8-----| 


  A 
                   |-3-| |--3--| |-3-| |-3-| 
  H      Q   E E   E E E E E   E E E E E E E 
|----------------|----------------------------| 
|----------------|----------------------------| 
|----------------|----------------------------| 
|----------------|-5-7-7-7-7-----7p5----------| 
|--------------7-|-------------7-----7-6p5----| 
|----------------|----------------------------| 
| 
| E E Q  E E Q     Q     E   E   H 
|---9-9--8-9-----|-9-----8---9----------------| 
|---8-8--7-8-----|-8-----7---8----------------| 
|----------------|----------------------------| 
|----------------|----------------------------| 
|----------------|----------------------------| 
|----------------|----------------------------| 


  D                                       A 
  PM-----------------------------------------------------------------------| 
  E E E E E E E E   E E E E E E     E E   E E E E E E  E E   E E E E E E E E 
|-----------------|---------------------|------------------|------------------| 
|-----------------|---------------------|------------------|------------------| 
|-----5-2-5-2-4-2-|-5-2-4-2---2-------2-|------------------|------------------| 
|---4-------------|---------------------|---2-4-2-5-2--4-2-|-2-2-4-2-5--------| 
|-----------------|---------------------|-0----------------|-----------5s6-7--| 
|-----------------|---------------------|------------------|------------------| 
| 
| Q   Q   E Q   E   Q   E E E Q       E   Q   Q   E Q.       Q   E E H 
|-----------------|---------------------|-----9---8-9------|-9---8-9----------| 
|-----------------|---------------------|-----8---7-8------|-8---7-8----------| 
|-----5---4-5---x-|-5---4-5-------------|------------------|------------------| 
|-----4---5-7---x-|-7---3-4-------------|------------------|------------------| 
|-----------------|-----------3b3.5---4-|------------------|------------------| 
|-----------------|---------------------|------------------|------------------| 


  E                             D 
  |-3-| |-3-| |--3--| |--3--|   |-3-|     |-3-| |-3-| 
  E E E E E E E E   E E E   E   E E E E E E E E E E E 
|-----------------------------|-----------------------| 
|-----------------------------|-----------------------| 
|-----------------------------|-----------------------| 
|-----------------------------|-5-6-7-7-7-7p5---------| 
|-5-6-7-5-6-7-5-6---7-5-6---7-|---------------7-6p5---| 
|-----------------------------|---------------------8-| 
| 
| Q     Q     E   Q       E     Q     E E Q     Q 
|-----------------------------|-----------------------| 
|-------5-----3---5-------5---|-----------------------| 
|-----------------------------|-------5-5-2-----------| 
|-----------------------------|-4---------------------| 
|-----------------------------|-----------------------| 
|-----------------------------|-----------------------| 


  A 
       |-3-| |-3-| |-3-|      |-3-| 
  a Q  E E E E E E E E E   Q  Q   E +H 
|------------------------|------------------------|| 
|--------5-----4-----3---|-2----------------------|| 
|------------------------|------------------------|| 
|------5---5-4---4-3---3-|-2------2-(2)-----------|| 
|-5h7--------------------|------------------------|| 
|------------------------|----3b4-----------------|| 
| 
|      |-3-| |-3-| |-3-| 
|   Q  E E E E E E E E E   Q  Q      E  E E E 
|------------------------|------------------------|| 
|------------------------|------------------------|| 
|------------------------|----------------5-7b9---|| 
|------5-5-5-4-4-4-3-3-3-|-2------------7---------|| 
|------------------------|------------------------|| 
|------------------------|------------------------|| 


 Guitar Solo 
  A                     D 
   PM--------------------------------------------- 
   E  E E E E E  E  E    E  E E E E E E     E 
|---------------------|--------------------------| 
|---------------------|--------------------------| 
|---------------------|--5-----------------------| 
|-----------2-2--4--2-|-----2-4-2-4-2------------| 
|--0--0-3-4-----------|---------------3b3.5-4----| 
|---------------------|--------------------------| 
| 
| +H.           +Q      +Q    Q   E E E     E 
|---------------------|--------------------------| 
|---------------------|--------------------------| 
|-(7)-----------(7)---|-(7)-----------5-----7b8==| 
|---------------------|-------------7------------| 
|---------------------|--------------------------| 
|---------------------|--------------------------| 


  A 
 ------------------------------------------------| 
   E   E E   E   E E E E   E E E E E E       E   E 
|------------------------|--------------------------| 
|------------------------|--------------------------| 
|--2---------------------|--------------------------| 
|------2---------2-2-4-2-|-2-2-4-2-5-2-------4---2--| 
|--------3---4-----------|--------------------------| 
|------------------------|--------------------------| 
| 
|        |--3--| 
| +Q     E E   E E E E E   H       E E      +Q 
|------------------------|-----------8b8.5==(8)r----| 
|------------------------|--------------------------| 
|-(7)r---7-5-----5-------|--------------------------| 
|------------------7---5-|--------------------------| 
|------------------------|--------------------------| 
|------------------------|--------------------------| 


  D 
  E E E E E E E   E   E E E E q    E     E 
|-------------------|-----------------------| 
|-------------------|-----------------------| 
|---------2-2-4b5-0-|---------2----5b6---0--| 
|-4-4-2-4-----------|-4-4-3-4---------------| 
|-------------------|-----------------------| 
|-------------------|-----------------------| 
| 
| E E E E E e Q       H       E E +E    +E 
|-5-7-5---5-8-------|-----------8-(8)b9-(8)-| 
|-------7-----------|-----------------------| 
|-------------------|-----------------------| 
|-------------------|-----------------------| 
|-------------------|-----------------------| 
|-------------------|-----------------------| 


  A 
        |--3--| |--3--| |-3-|        |-3-| |--3--|  |---3----| 
  Q   a E E   E E E   E E E E   Q  a E E E E E   E  E      E E 
|-----------------------------|--------------------------------| 
|-----------------------------|--------------------------------| 
|-----------------------------|--------------------------------| 
|-----5s7-7---7-7-5-----------|----5s7-7-7-7p5-----------------| 
|---------------------7-6p5---|------------------7--6p=====5---| 
|---------------------------8-|-5----------------------------8-| 
| 
| E E   E   E   E   e   Q       H          E   E   +Q 
|-5-8---5---------------------|----------------8---(8)b8.5-----| 
|-----------7---5-------------|--------------------------------| 
|-------------------5---------|--------------------------------| 
|-----------------------------|--------------------------------| 
|-----------------------------|--------------------------------| 
|-----------------------------|--------------------------------| 


  E                     D 
                                            |----3----| 
  E E E E Q       q     Q       Q       E E E   +E    E 
|---------------------|---------------------------------| 
|---------------------|---------------------------------| 
|---------------------|---------5-------4-5-5b6-(5)---0-| 
|-----2-2-------------|-4-------------------------------| 
|-2-2-----4b5-----4---|---------------------------------| 
|---------------------|---------------------------------| 
| 
| E E E E E   S S E E   E   +E  S S S S E E E       E 
|-5-8-5---------------|---------------------------------| 
|-------8-5-----------|---------------------------------| 
|-------------7s8s7-5-|-7b8-(7)-7h8p7p5-7-5-------------| 
|---------------------|---------------------7-------5---| 
|---------------------|---------------------------------| 
|---------------------|---------------------------------| 


  A                                                  E 
      |---3---| |-----3------| |--3--| 
  E E E    E  E E         E  E E E   E   E   E   E   E   +Q       Q 
|--------------------------------------|---------------------------------| 
|----------5--------------4------3-----|-----0-------3---(3)-------------| 
|--------------------------------------|-----0---0---1---(1)-------------| 
|-2-2-5-------5-4------------4-3-----3-|-2-----------2---(2)-------------| 
|--------------------------------------|---------------------------------| 
|--------------------------------------|---------------------------------| 
| 
|     |---3---| |-----3------|           |--3--| |--3--| 
| E E E   +E  E S    +S  +E  E E   E     E E   E E E   E  S S S S E E 
|--------------------------------------|---------------------------------| 
|-------------5------------------------|-------5-------5-----------------| 
|---5-7b9-(7)---7b8==(7)r(7)-5-7---5---|-7s8-----7s8------7h8p7p5-7-5----| 
|-7------------------------------------|---------------------------------| 
|--------------------------------------|---------------------------------| 
|--------------------------------------|---------------------------------| 


  A                                     D 
  PM----------------------------------------------------------------------- 
  E       E   E E E       E   E     E   E E E E E       E   E         E 
|-------------------------------------|-----------------------------------| 
|-------------------------------------|-----------------------------------| 
|-------------------------------------|-5---------------------------------| 
|-----------------2-------2---4-----2-|---2-4-2-4-------2-----------------| 
|-0-------0---3-4---------------------|---------------------3b3.5-----4---| 
|-------------------------------------|-----------------------------------| 
| 
| |----3----|     |----3----|                   |----3----| |-----3-----| 
| E   +E    E E E E   +E    E E     E   E E E E E   +E    E E     +E    E 
|-------------5---------------8b8.5-5-|-8-5-------------------------------| 
|-----------5---5-8b9-(8)---5---------|-----8-5-----------5---------------| 
|-7b8-(7)-----------------------------|---------7b8-(7)-----7b8r==(7)---5-| 
|-------------------------------------|-----------------------------------| 
|-------------------------------------|-----------------------------------| 
|-------------------------------------|-----------------------------------| 


  A 
 ------------------------------------| 
  E E E E E E E E   E E E    E E E E E 
|-----------------|--------------------| 
|-----------------|--------------------| 
|-2---------------|--------------------| 
|---2-----2-2-4-2-|-2-2-4----2-5-2-4-2-| 
|-----3-4---------|--------------------| 
|-----------------|--------------------| 
| 
| E E E E E E E E   E E E    E E E E E 
|-----------------|-5-8------5---------| 
|-----------5-7-5-|-----8pb9---7-5-5-5-| 
|-7-5---5-7-------|--------------------| 
|-----7-----------|--------------------| 
|-----------------|--------------------| 
|-----------------|--------------------| 


  D 
  E E E    E  E E    E   E   E E E E q     E   E 
|--------------------------|-----------------------| 
|--------------------------|-----------------------| 
|-------------2-2----4b5-0-|---------2-----5b6-0---| 
|-4-4-2----4---------------|-4-4-3-4---------------| 
|--------------------------|-----------------------| 
|--------------------------|-----------------------| 
| 
| Q   E   +E  E E   +E   E   E E E E E E   E   E 
|--------------------------|-----------------------| 
|-5------------------------|-------5-5-----5-------| 
|-----7b9r(7)-5-7b8r(7)--5-|-7-5-------7b8-----7b8-| 
|--------------------------|-----7-----------------| 
|--------------------------|-----------------------| 
|--------------------------|-----------------------| 


  A 
        |--3--| |--3--| |--3--|         |----3----| |--3--| |--3--| 
  Q   a E E   E E E   E E E   E   Q   a E     E   E E E   E E E   E 
|-------------------------------|------------------------------------| 
|-------------------------------|------------------------------------| 
|-------------------------------|------------------------------------| 
|-----5s7-7---7-7-5-------------|-----5s7-----7---7-7p5--------------| 
|---------------------7-6p5-----|-------------------------7-6p5------| 
|-----------------------------8-|-5-------------------------------8--| 
| 
| E E   E   E   E   E   E   E     E E   E       E   E   E   E   E 
|-------------------------------|-5-5---------------5---5------------| 
|-------------------5---7---5---|-------8b8.5---5-----------7---5----| 
|-7-5-------5---6---------------|------------------------------------| 
|-------7-----------------------|------------------------------------| 
|-------------------------------|------------------------------------| 
|-------------------------------|------------------------------------| 


  E                               D 
                                                               |----3----| 
  E       E   E E Q     q         Q   Q         E        E     E   +E    E 
|-------------------------------|------------------------------------------| 
|-------------------------------|------------------------------------------| 
|-------------------------------|-----5---------4--------5-----5b6-(5)---0-| 
|-------------2-2---------------|-4----------------------------------------| 
|-2-------2-------4b5---4-------|------------------------------------------| 
|-------------------------------|------------------------------------------| 
| 
| |----3----|                         |---3---| |-----3-----| 
| E   +E    E E E E   E E     E   E E E   +E  E E    +E    +E  E       E 
|-8b9-(8)---5---8-5-----8b8.5-5-|---5--------------------------------------| 
|-------------5-------5---------|-5---8b9-(8)-5----------------------------| 
|-------------------------------|---------------7b9==(7)r==(7)-7-------5---| 
|-------------------------------|------------------------------------------| 
|-------------------------------|------------------------------------------| 
|-------------------------------|------------------------------------------| 


                                     D.S. al Coda 
  A                                     E 
      |---3---| |---3---| |-3-| 
  E E E    E  E E    E  E E E E   E E E E +Q   Q 
|-------------------------------|------------------|| 
|----------5---------4------3---|---0---3-(3)------|| 
|-------------------------------|---0-0-1-(1)------|| 
|-2-2-5-------5-4-------4-3---3-|-2-----2-(2)------|| 
|-------------------------------|------------------|| 
|-------------------------------|------------------|| 
| 
|     |---3---| |---3---| 
| E E E   +E  E E   +E  E Q       E E E E +Q   Q 
|-------------------------------|------------------|| 
|-------------5-----------------|------------------|| 
|---5-7b9-(7)---7b8r(7)-5-------|------------------|| 
|-7-----------------------7-----|-5----------------|| 
|-------------------------------|---7-7-7-(7)------|| 
|-------------------------------|------------------|| 


 Outro 
                                   H.=H 
  & 
  D            A 
  q  Q  H      E E E E E E E  E    a E e   E E +H 
|------------|-----5-5-----------|--------------------: 
|------------|---8-----8-5-------|--------------------: 
|-2----------|-------------7-----|-5h6----------------: 
|-0----------|---------------(7)-|-----7-----5-(5)----: 
|------------|-------------------|--------------------: 
|------------|-------------------|--------------------: 
| 
| W            E E E E E E E  E      E E a E E +H 
|------------|-------------------|--------------------: 
|------------|---2-2-2-3-3-3--3--|---2-------2-(2)----: 
|------------|---2-2-2-----------|---2-2-----0-(0)----: 
|------------|---2-2-2-----------|---2-2---2-2-(2)----: 
|------------|-------------------|-------3h4-0-(0)----: 
|------------|-------------------|--------------------: 


  |---3---| |-3-|       |-3-| 
  E   +E  E E E E E S S E E E   E E E E E   +E  Q 
|-----------5-----8-5h7-5---5-:--------------------*| 
|---------5---8-5---------8---:-8------------------*| 
|-5b6-(5)---------------------:---8-5-7-5b6-(5)----*| 
|-----------------------------:--------------------*| 
|-----------------------------:--------------------*| 
|-----------------------------:--------------------*|  
    	

enviado porenviado por: andrsouza
cifra enviadaCorrigida por: sem correções
logo top cifrasComente
ico música do artistaMúsicas deste artista
ico curtiuCurtiu?
ico destaqueDestaque
Petaxxon Comunicação Online

Cifras.com.br - Melhor e mais completo site de cifras e tablaturas do Brasil Mais de 1 milhão de acordes de músicas cadastradas desde 2003
As informações contidas no nosso site são colaborações de seus usuários e podem conter erros, sendo assim, não nos responsabilizamos sobre nenhuma destas.

close
menos
mais
close
Cor dos acordes:

Cor da letra:

close
Alinhar acordes a direita Alinhar acordes a esquerda Alinhar acordes em baixo Alinhar acordes no topo
close
  Mostrar todos os acordes Esconder acordes muito fáceis Esconder acordes fáceis Esconder acordes intermediários
redimensionar
glossário