Cifras e Tablaturas
MUNA

MUNA

Loudspeaker

Cifras Cancelar Versão de Impressão
cifras

MUNA - Loudspeaker

fixar na tela  
Exibindo: vídeo-aula ver clipes redimensionar

Tom:

  LOUDSPEAKER - MUNA 

Intro 
e|----------------------------------------| 
B|-14-x-x-14-x-14-x-14--------------------| 
G|-14-x-x-14-x-14-x-14--------------------| (x3) 
D|-14-x-x-14-x-14-x-14--------------------| 
A|----------------------------------------| 
E|----------------------------------------| 

e|-------------------------------| 
B|-14-x-x-14---------------------| 
G|-14-x-x-14---------------------|  
D|-14-x-x-14---------------------| 
A|-------------------------------| 
E|-------------------------------| 

Verse 
e|---------------------------------------| 
B|---------------------------------------| 
G|--------9--x-9-------------------------| (x2) 
D|--9/11--11-x-11----9/11-9/11-----------| 
A|--------12-x-12---------------12~------| 
E|---------------------------------------| 

e|-----------------------------------------------------| 
B|-----------------------------------------------------| 
G|-9-----9-----x-x-9---x-x-9---x-x-9--x-x-9--x-x-9-----|  
D|-11----11----x-x-11--x-x-11--x-x-11-x-x-11-x-x-11----| 
A|-12----11----x-x-11--x-x-11--x-x-11-x-x-11—x-x-11----| 
E|-----------------------------------------------------| 

e|---------------------------------------------| 
B|---------------------------------------------| 
G|-9-----9-----xx-9---x-x-9---x-x-9--x-x-9-----|  
D|-11----11----xx-11--x-x-11--x-x-11-x-x-11----| 
A|-12----11----xx-11--x-x-11--x-x-11-x-x-11----| 
E|---------------------------------------------| 

Chorus 
e|----------------------------------------------------| 
B|-14~------14~------12~------12-x-x-12-x-12-x-12-----| 
G|-14~------14~------14~------14-x-x-14-x-14-x-14-----| (x2) 
D|-14~------14~------14~------14-x-x-14-x-14-x-14-----| 
A|----------------------------------------------------| 
E|----------------------------------------------------| 

Bridge 
e|-----------------------------------------------| 
B|-14-x-x-14-x-14-x-14----14-x-x-14-x-14-x-14----| 
G|-14-x-x-14-x-14-x-14----14-x-x-14-x-14-x-14----|  
D|-14-x-x-14-x-14-x-14----14-x-x-14-x-14-x-14----| 
A|-----------------------------------------------| 
E|-----------------------------------------------| 

e|-----------------------------------------------| 
B|-12-x-x-12-x-12-x-12----12-x-x-12-x-12-x-12----| 
G|-14-x-x-14-x-14-x-14----14-x-x-14-x-14-x-14----|  
D|-14-x-x-14-x-14-x-14----14-x-x-14-x-14-x-14----| 
A|-----------------------------------------------| 
E|-----------------------------------------------| 


************************************ 

| x  Dead note 
| /  Slide up 
| ~  Vibrato 

************************************ 
  

top 5 | muna
top rock'n roll
Outras músicas do artista letras do(a) MUNA
Top cifras »Top artistas »
Petaxxon Comunicação Online
Cifras.com.br - Melhor e mais completo site de cifras e tablaturas do Brasil
Mais de 1 milhão de acordes de músicas cadastradas desde 2003
As informações contidas no nosso site são colaborações de seus usuários e podem conter erros, sendo assim, não nos responsabilizamos sobre nenhuma destas.
close
menos
mais
close
Cor dos acordes:

Cor da letra:

 

save
close
close
 
redimensionar