Cifras e Tablaturas
Murderdolls

Murderdolls

197666

Cifras Cancelar Versão de Impressão Print

Murderdolls - 197666

Tom:

  			Intro Riff
E|-----------------------------------------------------------------------|
B|-----------------------------------------------------------------------|
G|-----------------------------------------------------------------------|
D|7---\0---------7---\0---------10---5---7-7-7-7-7-7-7-7-7-7-7-7-7-7-7-7-|
A|7---\0---------7---\0---------10---5---7-7-7-7-7-7-7-7-7-7-7-7-7-7-7-7-|
E|5---\0---------5---\0----------8---3---5-5-5-5-5-5-5-5-5-5-5-5-5-5-5-5-|
PM					   - - - - - - - - - - - - - - -

Verse Riff
E|--------------------------------------------------------------------------------
B|--------------------------------------------------------------------------------
G|--------------------------------------------------------------------------------
D|7-7-7-7-7-7-7-7-7-7-7-7-7-7-7-7-10-10-10-10-10-10-10-10-10-10-10-10-10-10-10-10-
A|7-7-7-7-7-7-7-7-7-7-7-7-7-7-7-7-10-10-10-10-10-10-10-10-10-10-10-10-10-10-10-10-
E|5-5-5-5-5-5-5-5-5-5-5-5-5-5-5-5--8--8--8--8--8--8--8--8--8--8--8--8--8--8--8--8-

E|----------------------------------------------------------------|
B|----------------------------------------------------------------|
G|----------------------------------------------------------------|
D|5-5-5-5-5-5-5-5-5-5-5-5-5-5-5-5-7-7-7-7-7-7-7-7-7-7-7-7-7-7-7-7-|
A|5-5-5-5-5-5-5-5-5-5-5-5-5-5-5-5-7-7-7-7-7-7-7-7-7-7-7-7-7-7-7-7-|
E|3-3-3-3-3-3-3-3-3-3-3-3-3-3-3-3-5-5-5-5-5-5-5-5-5-5-5-5-5-5-5-5-|

Pre=Chorus Riff
E|------------------------------------------------------------------------
B|------------------------------------------------------------------------
G|------------------------------------------------------------------------
D|7-7-10-10-7-7-10-10-7-7-7-7-7-7-7-7-7-7-10-10-7-7-10-10-7-7-7-7-7-7-7-7-
A|7-7-10-10-7-7-10-10-7-7-7-7-7-7-7-7-7-7-10-10-7-7-10-10-7-7-7-7-7-7-7-7-
E|5-5--8--8-5-5--8--8-5-5-5-5-5-5-5-5-5-5--8--8-5-5--8--8-5-5-5-5-5-5-5-5-

E|----------------------------------------------------------------|
B|----------------------------------------------------------------|
G|----------------------------------------------------------------|
D|5-5-5-5-5-5-5-5-5-5-5-5-5-5-5-5-7-7-7-7-7-7-7-7-7-7-7-7-7-7-7-7-|
A|5-5-5-5-5-5-5-5-5-5-5-5-5-5-5-5-7-7-7-7-7-7-7-7-7-7-7-7-7-7-7-7-|
E|3-3-3-3-3-3-3-3-3-3-3-3-3-3-3-3-5-5-5-5-5-5-5-5-5-5-5-5-5-5-5-5-|

Chorus Riff
E|------------------------------------------------------------------------
B|------------------------------------------------------------------------
G|------------------------------------------------------------------------
D|------------------------------------------------------------------------
A|7-7-7-7-7-7-7-7-7-7-7-7-10-10-10-10-7-7-7-7-7-7-7-7-7-7-7-7-10-10-10-10-
E|5-5-5-5-5-5-5-5-5-5-5-5--8--8--8--8-5-5-5-5-5-5-5-5-5-5-5-5--8--8--8--8-

E|----------------------------------------------------------------|
B|----------------------------------------------------------------|
G|----------------------------------------------------------------|
D|5-5-5-5-5-5-5-5-5-5-5-5-5-5-5-5-7-7-7-7-7-7-7-7-7-7-7-7-7-7-7-7-|
A|5-5-5-5-5-5-5-5-5-5-5-5-5-5-5-5-7-7-7-7-7-7-7-7-7-7-7-7-7-7-7-7-|
E|3-3-3-3-3-3-3-3-3-3-3-3-3-3-3-3-5-5-5-5-5-5-5-5-5-5-5-5-5-5-5-5-|


Solo
E|-------------------------------------------------------------
B|10----15-15-15-15-13-13-13-13-8----15-15-15-15-13-13-13-13-8-
G|-------------------------------------------------------------
D|-------------------------------------------------------------
A|-------------------------------------------------------------
E|-------------------------------------------------------------

E|------------------------------------------------12-12-17-15-
B|15-15-15-15-13-13-13-13-10--10--13-10-13-10-----------------
G|------------------------------------------------------------
D|------------------------------------------------------------
A|------------------------------------------------------------
E|------------------------------------------------------------

E|12-12-17-15-12-12-17-15-12-12-17-15-15-15-20-17-15-15-20-17-
B|------------------------------------------------------------
G|------------------------------------------------------------
D|------------------------------------------------------------
A|------------------------------------------------------------
E|------------------------------------------------------------

E|15-15-20-17-15-15-20-17-21-----21-21-21-19-17----|
B|-------------------------------------------------|
G|-------------------------------------------------|
D|-------------------------------------------------|
A|-------------------------------------------------|
E|-------------------------------------------------|

Riff final
E|------------------------------------------------------------------------
B|------------------------------------------------------------------------
G|------------------------------------------------------------------------
D|7-7-10-10-7-7-10-10-7-7-7-7-7-7-7-7-7-7-10-10-7-7-10-10-7-7-7-7-7-7-7-7-
A|7-7-10-10-7-7-10-10-7-7-7-7-7-7-7-7-7-7-10-10-7-7-10-10-7-7-7-7-7-7-7-7-
E|5-5--8--8-5-5--8--8-5-5-5-5-5-5-5-5-5-5--8--8-5-5--8--8-5-5-5-5-5-5-5-5-

E|----------------------------------------------------------------|
B|----------------------------------------------------------------|
G|----------------------------------------------------------------|
D|7-7-10-10-7-7-10-10-7-7-7-7-7-7-7-7-7-7-10-10-7-7-10-10-7-7-7-7-|
A|7-7-10-10-7-7-10-10-7-7-7-7-7-7-7-7-7-7-10-10-7-7-10-10-7-7-7-7-|
E|5-5--8--8-5-5--8--8-5-5-5-5-5-5-5-5-5-5--8--8-5-5--8--8-5-5-5-5-|


ORDEM

Intro Riff x 1
Verse Riff x 1
Pre-Chorus Riff x 1
Chorus Riff x 1
Intro Riff x 1
Verse Riff x 1
Pre-Chorus Riff x 1
Chorus Riff x 1
Pausa
Verse Riff x 2 (c/Solo)
Pre-Chorus Riff x 1
Chorus Riff x 1
Riff final x 1
    	

enviado porenviado por: anônimo
cifra enviadaCorrigida por: sem correções
logo top cifrasComente
ico música do artistaMúsicas deste artista
ico curtiuCurtiu?
ico destaqueDestaque
Petaxxon Comunicação Online

Cifras.com.br - Melhor e mais completo site de cifras e tablaturas do Brasil Mais de 1 milhão de acordes de músicas cadastradas desde 2003
As informações contidas no nosso site são colaborações de seus usuários e podem conter erros, sendo assim, não nos responsabilizamos sobre nenhuma destas.

close
menos
mais
close
Cor dos acordes:

Cor da letra:

close
Alinhar acordes a direita Alinhar acordes a esquerda Alinhar acordes em baixo Alinhar acordes no topo
close
  Mostrar todos os acordes Esconder acordes muito fáceis Esconder acordes fáceis Esconder acordes intermediários
redimensionar
glossário