Cifras e Tablaturas
Murderdolls

Murderdolls

People Hate Me

Cifras Cancelar Versão de Impressão Print

Murderdolls - People Hate Me

Tom:

  			 intro/riff 1
e -------------------------------------------------------------------------
B -------------------------------------------------------------------------
G -------------------------------------------------------------------------
D -------------------------------------------------------------------------
A -------------------------------------------------------------------------
E -0-0-1-2-3-0-7-6-0-3-4-5-0-5-4-3---0-0-1-2-3-0-7-6-0-3-4-5-0-12-11-10----

e -------------------------------------------------------------------------
B -------------------------------------------------------------------------
G -------------------------------------------------------------------------
D ----------------------------------2-x-5-x-7/8-x-5-7----------------------
A ----------------------------------2-x-5-x-7/8-x-5-7----------------------
E -0-0-1-2-3-0-7-6-0-3-4-5-0-5-4-3--0-x-3-x-5/6-x-3-5--6-5-3---------------


riff 2
e -------------------------------------------------------------------------
B -------------------------------------------------------------------------
G -------------------------------------------------------------------------
D -------------------------------------------------------------------------
A -------------------------------------------------------------------------
E -0-0-1-2-3-0-7-6-0-3-4-5-0-5-4-3---0-0-1-2-3-0-7-6-0-3-4-5-0-12-11-10----

e -------------------------------------------------------------------------
B -------------------------------------------------------------------------
G -------------------------------------------------------------------------
D ----------------------------------2-x-5-x-7/8-x-5-7--------2-------------
A ----------------------------------2-x-5-x-7/8-x-5-7--------2-------------
E -0-0-1-2-3-0-7-6-0-3-4-5-0-5-4-3--0-x-3-x-5/6-x-3-5--6-5-3-0-------------

verso
e --------------------------------------------------------0----------------
B --------------------------------------------------------0----------------
G -------------------------------------------------------------------------
D -----------------------------------2-------------------------------------
A -----------------------------------2-deixe soar -------------------------
E -0-0-1-2-3-0-7-6-0-3-4-5-0-5-4-3---0------------------------------------- x 3

e -------------------------------------------------------------------------
B -------------------------------------------------------------------------
G -------------------------------------------------------------------------
D -------------------------------------------------------------------------
A –------------------------------------------------------------------------
E -0-0-1-2-3-0-7-6-0-3-4-5-0-12-11-10-------------------------------------- x 1

riff 3
e -------------------------------------------------------------------------
B -------------------------------------------------------------------------
G -------------------------------------------------------------------------
D -7-7-7-7-7-5---7-7-7-7-7-5---7--5--7--5--7--10--10—-10--2----------------
A -7-7-7-7-7-5---7-7-7-7-7-5---7--5--7--5--7--10--10—-10--2----------------
E -5-5-5-5-5-3---5-5-5-5-5-3---5--3--5--3--5---8---8---8--0----------------

riff 4
e -------------------------------------------------------------------------
B -------------------------------------------------------------------------
G -9-9-11-12---9-9-11-12-----9---------------------------------------------
D -9-9-11-12---9-9-11-12-----9-6-------------------------------------------
A -7-7--9-10---7-7--9-10-----7-6-------------------------------------------
E -----------------------------4-------------------------------------------

e -------------------------------------------------------------------------
B -------------------------------------------------------------------------
G --------------------------------------------------------------------
D -9-----8-----7------6---5------------------------------------------------
A -9-----8-----7------6---5------------------------------------------------
E -7-----6-----5------4---3-----------------------------------------------------

chorus
e -------------------------------------------------------------------------
B -------------------------------------------------------------------------
G -------------------------------------------------------------------------
D --5----2-----10----5-5-5-5-5---5---2---10--5-5-6-6-7-7-8----------------
A --5----2-----10----5-5-5-5-5---5---2---10--5-5-6-6-7-7-8----------------
E --3----0------8----3-3-3-3-3---3---0----8--3-3-4-4-5-5-6----------------

e -------------------------------------------------------------------------
B -------------------------------------------------------------------------
G -------------------------------------------------------------------------
D --5---2------10----5-5-5-5-5-5---7-7-7-7-6-6-6-6-5-5-5-5-4-4-3-3--------
A --5---2------10----5-5-5-5-5-5---7-7-7-7-6-6-6-6-5-5-5-5-4-4-3-3--------
E --3---0-------8----3-3-3-3-3-3---5-5-5-5-4-4-4-4-3-3-3-3-2-2-1-1--------

riff 5
e -------------------------------------------------------------------------
B -------------------------------------------------------------------------
G -------------------------------------------------------------------------
D -2-------------2-5-2------5-5-6-6-7-7--2--------------------------------
A -2-------------2-5-2------5-5-6-6-7-7--2--------------------------------
E -0-------------0-3-0------3-3-4-4-5-5--0--------------------------------


riff 6
e -------------------------------------------------------------------------
B -------------------------------------------------------------------------
G -9-9-9--10-10-10--11-11-11--12-12-12--13-13--14-14-----------------------
D -9-9-9--10-10-10--11-11-11--12-12-12--13-13--14-14-----------------------
A -7-7-7---8--8--8---9--9--9--10-10-10--11-11--12-12-----------------------
E -------------------------------------------------------------------------

ritmo para o solo
e -------------------------------------------------------------------------
B -------------------------------------------------------------------------
G -------------------------------------------------------------------------
D -2--5-2-5-7-8---2--5-2-8-7-5---------------------------------------------
A -2--5-2-5-7-8---2--5-2-8-7-5---------------------------------------------
E -0--3-0-3-5-6---0--3-0-6-5-3---------------------------------------------

e -------------------------------------------------------------------------
B -------------------------------------------------------------------------
G -7-7-7---6-6-6---5-5-5---4-4-4-4-4-4-------------------------------------
D -7-7-7---6-6-6---5-5-5---4-4-4-4-4-4-------------------------------------
A -5-5-5---4-4-4---3-3-3---2-2-2-2-2-2-------------------------------------
E -------------------------------------------------------------------------

e -------------------------------------------------------------------------
B -------------------------------------------------------------------------
G -------------------------------------------------------------------------
D -7-7-7--6-6-6--5-5-5--4-4-4--3-3-3-3----2--------------------------------
A -7-7-7--6-6-6--5-5-5--4-4-4--3-3-3-3----2--------------------------------
E -5-5-5--4-4-4--3-3-3--2-2-2--1-1-1-1----0--------------------------------
                                   pm..


Ordem

intro/riff 1
riff 2
verso
riff 3
fill
riff 4
chorus
riff 2
verso
riff 3
fill
riff 4
chorus
riff 5
riff 6 
ritmo para o solo
verso
riff 3
fill
riff 4
chorus
    	

enviado porenviado por: anônimo
cifra enviadaCorrigida por: sem correções
logo top cifrasComente
ico música do artistaMúsicas deste artista
ico curtiuCurtiu?
ico destaqueDestaque
Petaxxon Comunicação Online

Cifras.com.br - Melhor e mais completo site de cifras e tablaturas do Brasil Mais de 1 milhão de acordes de músicas cadastradas desde 2003
As informações contidas no nosso site são colaborações de seus usuários e podem conter erros, sendo assim, não nos responsabilizamos sobre nenhuma destas.

close
menos
mais
close
Cor dos acordes:

Cor da letra:

close
Alinhar acordes a direita Alinhar acordes a esquerda Alinhar acordes em baixo Alinhar acordes no topo
close
  Mostrar todos os acordes Esconder acordes muito fáceis Esconder acordes fáceis Esconder acordes intermediários
redimensionar
glossário