Cifras e Tablaturas
Mutoid Man

Mutoid Man

Kiss Of Death

Cifras Cancelar Versão de Impressão
cifras

Mutoid Man - Kiss Of Death

fixar na tela  
Exibindo: vídeo-aula ver clipes redimensionar
  Intro 

Eb|-----1-0---0---------|-------------|--------1-0---0---------| 
Bb|---------4---1-4-0-1-|-------------|------------4---1-4-0-1-| 
Gb|---------------------|-------------|------------------------| 
Db|---------------------|-3-4---3-4---|-(4)--------------------| 
Ab|---------------------|-1-2---1-2---|-(2)--------------------| 
Bb|---------------------|-------------|------------------------| 


Eb|--------------|--------1-0---0---------|-------------| 
Bb|--------------|------------4---1-4-0-1-|-------------| 
Gb|--------------|------------------------|-------------| 
Db|-3-4---3-4--8-|-(8)--------------------|-3-4---3-4---| 
Ab|-1-2---1-2--6-|-(6)--------------------|-1-2---1-2---| 
Bb|--------------|------------------------|-------------| 


Eb|-------1-0---0---------|--------------|--------| 
Bb|-----------4---1-4-0-1-|--------------|--------| 
Gb|-----------------------|--------------|--------| 
Db|-3-4-------------------|-3-4---3-4--8-|-(8)----| 
Ab|-1-2-------------------|-1-2---1-2--6-|-(6)----| 
Bb|-----------------------|--------------|--------| 


Main Riff 

Eb|-----------------|-----------------|-----------------|--------------| 
Bb|-----------------|-----------------|-----------------|--------------| 
Gb|-4---------------|-----------------|-----------------|--------------| 
Db|-3-----------1-0-|-----------------|---1---------1-0-|-------8--7---| 
Ab|-------------1-0-|-3-2---------2-3-|---1---------1-0-|-3-2---6--5---| 
Bb|----0-0-0-0------|-1-0-0-0-0-0-0-1-|-3---0-0-0-0-----|-1-0-0--------| 


Eb|-----------------|-----------------|-----------------|----------------| 
Bb|-----------------|-----------------|-----------------|----------------| 
Gb|-4---------------|-----------------|-----------------|----------------| 
Db|-3-----------1-0-|-----------------|---1---------1-0-|----------------| 
Ab|-------------1-0-|-3-2---------2-3-|---1---------1-0-|-3-2---15--14---| 
Bb|-----0-0-0-0-----|-1-0-0-0-0-0-0-1-|-3---0-0-0-0-----|-1-0-0-13--12---| 


Eb|-----------------|-----------------|-----------------|--------------------| 
Bb|-----------------|-----------------|-----------------|-------7-----6------| 
Gb|-4---------------|-----------------|-----------------|-------9b11--8b10---| 
Db|-3-----------1-0-|-----------------|---1---------1-0-|--------------------| 
Ab|-------------1-0-|-3-2---------2-3-|---1---------1-0-|-3-2----------------| 
Bb|-----0-0-0-0-----|-1-0-0-0-0-0-0-1-|-3---0-0-0-0-----|-1-0-0--------------| 


Eb|-----------------|-----------------|-----------------|--------------| 
Bb|-----------------|-----------------|-----------------|--------------| 
Gb|-4---------------|-----------------|-----------0-1-2-|-3-4---8--7---| 
Db|-3-----------1-0-|-----------------|---1-2-3-4-0-1-2-|-3-4---8--7---| 
Ab|-------------1-0-|-3-2---------2-3-|---1-2-3-4-------|--------------| 
Bb|-----0-0-0-0-----|-1-0-0-0-0-0-0-1-|-3---------------|-----0--------| 


Verse 

Eb||-----------------|-----------------|-----------------|----------------|| 
Bb||-----------------|-----------------|-----------------|----------------|| 
Gb||--4--------------|-----------------|-----------------|-------8--7-----|| 
Db||--3--------------|-------------1-0-|-----------------|-------7--6-----|| x2 
Ab||-----------------|-------------1-0-|-3-2-------------|----------------|| 
Bb||-----0-0-0-0-0-0-|-0-0-0-0-0-0-----|-1-0-0-0-0-0-0-0-|-0-0-0----------|| 


Pre-Chorus 

Eb|----------|-------------|----------------|--------------| 
Bb|----------|-------------|----------------|--------------| 
Gb|----------|-------------|-4--------------|-------8--7---| 
Db|----------|-------------|-3----------1-0-|-------7--6---| 
Ab|-7--------|-(7)-----8---|-2----------1-0-|-3-2----------| 
Bb|-5--------|-(5)-----6---|----0-0-0-0-----|-1-0-0--------| 


Eb|----------|-------------|----------------|-------------| 
Bb|----------|-------------|----------------|-7-----------| 
Gb|----------|-------------|----------------|-9b11--------| 
Db|----------|-------------|----------------|-------------| 
Ab|-7--------|-(7)-----8---|-9-9-9-9-9-9-9--|-------------| 
Bb|-5--------|-(5)-----6---|-7-7-7-7-7-7-7--|-------------| 


Chorus 

Eb||-----------------|------------|------------|----------------|| 
Bb||-----------------|------------|------------|----------------|| 
Gb||-----------------|------------|------------|----------------|| 
Db||-----------------|------------|------------|----------------|| x4 
Ab||--5-6-----5-6-8--|-(8)--------|-5---6---2--|-2--------------|| 
Bb||--3-4-0-0-3-4-6--|-(6)--------|-3---4---0--|-0----0-0-0-0---|| 


Main Riff 

Eb|-----------------|-----------------|-----------------|--------------------| 
Bb|-----------------|-----------------|-----------------|-------7-----6------| 
Gb|-4---------------|-----------------|-----------------|-------9b11--8b10---| 
Db|-3-----------1-0-|-----------------|---1---------1-0-|--------------------| 
Ab|-------------1-0-|-3-2---------2-3-|---1---------1-0-|-3-2----------------| 
Bb|-----0-0-0-0-----|-1-0-0-0-0-0-0-1-|-3---0-0-0-0-----|-1-0-0--------------| 


Eb|-----------------|-----------------|-----------------|--------------| 
Bb|-----------------|-----------------|-----------------|--------------| 
Gb|-4---------------|-----------------|-----------0-1-2-|-3-4---8--7---| 
Db|-3-----------1-0-|-----------------|---1-2-3-4-0-1-2-|-3-4---8--7---| 
Ab|-------------1-0-|-3-2---------2-3-|---1-2-3-4-------|--------------| 
Bb|-----0-0-0-0-----|-1-0-0-0-0-0-0-1-|-3---------------|-----0--------| 


verse 2 

Eb||-----------------|-----------------|-----------------|----------------|| 
Bb||-----------------|-----------------|-----------------|----------------|| 
Gb||--4--------------|-----------------|-----------------|-------8--7-----|| 
Db||--3--------------|-------------1-0-|-----------------|-------7--6-----|| x2 
Ab||-----------------|-------------1-0-|-3-2-------------|----------------|| 
Bb||-----0-0-0-0-0-0-|-0-0-0-0-0-0-----|-1-0-0-0-0-0-0-0-|-0-0-0----------|| 


Pre-Chorus 2 

Eb|----------|-------------|----------------|--------------| 
Bb|----------|-------------|----------------|--------------| 
Gb|----------|-------------|-4--------------|-------8--7---| 
Db|----------|-------------|-3----------1-0-|-------7--6---| 
Ab|-7--------|-(7)-----8---|-2----------1-0-|-3-2----------| 
Bb|-5--------|-(5)-----6---|----0-0-0-0-----|-1-0-0--------| 


Eb|----------|-------------|----------------|-------------| 
Bb|----------|-------------|----------------|-7-----------| 
Gb|----------|-------------|----------------|-9b11--------| 
Db|----------|-------------|----------------|-------------| 
Ab|-7--------|-(7)-----8---|-9-9-9-9-9-9-9--|-------------| 
Bb|-5--------|-(5)-----6---|-7-7-7-7-7-7-7--|-------------| 


Chorus 2 

Eb||-----------------|------------|------------|----------------|| 
Bb||-----------------|------------|------------|----------------|| 
Gb||-----------------|------------|------------|----------------|| 
Db||-----------------|------------|------------|----------------|| x4 
Ab||--5-6-----5-6-8--|-(8)--------|-5---6---2--|-2--------------|| 
Bb||--3-4-0-0-3-4-6--|-(6)--------|-3---4---0--|-0----0-0-0-0---|| 


DO IT 

Eb||-------------|----------------|---------------|-----------------| 
Bb||-------------|----------------|------11-------|--12-11----11~~--| 
Gb||-------------|--4-3-0---------|------13b15~~--|--------12-------| 
Db||-------------|--4-3-0-4-3-0---|---------------|-----------------| 
Ab||------14-----|--------4-3-0-4-|---------------|-----------------| 
Bb||-0----12\----|--------------2-|-0-------------|-----------------| 


Eb|-------------|----------------|---------------|-----------------|| 
Bb|-------------|----------------|------11-------|-----------------|| 
Gb|-------------|--4-3-0---------|------13b15~~--|--3-4-3-4-3-4~~--|| 
Db|-------------|--4-3-0-4-3-0---|---------------|--3-4-3-4-3-4~~--|| x2 
Ab|------14-----|--------4-3-0-4-|---------------|-----------------|| 
Bb|-0----12\----|--------------2-|-0-------------|-----------------|| 



***********************************  
|  /  Slide up  
|  \  Slide down  
|  ~  Vibrato  
|  b  Bend  
|  =  Hold Bend 
| (n) Ghost Note 
*********************************** 
  

top 5 | mutoid man
top rock'n roll
Outras músicas do artista letras do(a) Mutoid Man
Top cifras »Top artistas »
Petaxxon Comunicação Online
Cifras.com.br - Melhor e mais completo site de cifras e tablaturas do Brasil
Mais de 1 milhão de acordes de músicas cadastradas desde 2003
As informações contidas no nosso site são colaborações de seus usuários e podem conter erros, sendo assim, não nos responsabilizamos sobre nenhuma destas.
close
menos
mais
close
Cor dos acordes:

Cor da letra:

 

save
close
close
 
redimensionar