Cifras e Tablaturas
Myles Kennedy

Myles Kennedy

Haunted By Design

Cifras Cancelar Versão de Impressão

Myles Kennedy - Haunted By Design

Tom: Eb

  			
Intro 

Eb|--1p0-------0---------------------|-1p0-------0-------------------| 
Bb|--------3---------1-------0-------|-------3---------1-------------| 
Gb|----------------------------------|-------------------------------| 
Db|------0-------0-------0-------0---|-----0-------0-------0-------0-| 
Ab|----------------------------------|-------------------------------| 
Eb|--3-------3-------3-------3-------|-3-------3-------3-------3-----| 


Eb|--1p0-------0---------------------|-1p0-------0-----3-------------| 
Bb|--------3---------1-------0-------|-------3-----------------------| 
Gb|----------------------------------|-------------------------------| 
Db|------0-------0-------0-------0---|-----0-------0-------0-------0-| 
Ab|----------------------------------|-------------------------------| 
Eb|--3-------3-------3-------3-------|-3-------3-------3-------3-----| 


Verse 

Eb||--1p0-------0---------------------|-1p0-------0-------------------| 
Bb||--------3---------1-------0-------|-------3---------1-------------| 
Gb||----------------------------------|-------------------------------| 
Db||------0-------0-------0-------0---|-----0-------0-------0-------0-| 
Ab||----------------------------------|-------------------------------| 
Eb||--3-------3-------3-------3-------|-3-------3-------3-------3-----| 


Eb|--1p0-------0---------------------|-1p0-------0-----3-------------|| 
Bb|--------3---------1-------0-------|-------3-----------------------|| 
Gb|----------------------------------|-------------------------------|| 
Db|------0-------0-------0-------0---|-----0-------0-------0-------0-|| x2 
Ab|----------------------------------|-------------------------------|| 
Eb|--3-------3-------3-------3-------|-3-------3-------3-------3-----|| 


Chorus 

Eb||--------------------------------|--------------------------------------|| 
Bb||--8---------8-----8---------8---|-12---------12-----12---------12------|| 
Gb||--------0---------------0-------|--------0-----------------0-----------|| 
Db||------0-------0-------0-------0-|------0--------0--------0--------0----|| x2 
Ab||--6-------6-------6-------6-----|-10-------10-------10-------10--------|| 
Eb||--------------------------------|--------------------------------------|| 


Eb|---------------------------------|-----------------------------------| 
Bb|-10---------10----10--------10---|--8----------8------8----------8---| 
Gb|--------0---------------0--------|--------0-----------------0--------| 
Db|------0-------0-------0--------0-|------0--------0--------0--------0-| 
Ab|--8-------8-------8-------8------|-10-------10-------10-------10-----| 
Eb|---------------------------------|-----------------------------------| 


Eb|-------------------------------|---------------------------------| 
Bb|-8---------8-----8---------8---|-7---------7-----7-------7-------| 
Gb|-------0---------------0-------|-------0---------------0---------| 
Db|-----0-------0-------0-------0-|-----0-------0-------0-------0---| 
Ab|-6-------6-------6-------6-----|-5-------5-------5-------5-------| 
Eb|-------------------------------|---------------------------------| 


Eb|---------------------------------|------------| 
Bb|-5---------5-----6---------6-----|------------| 
Gb|-------0---------------0---------|-3----3-----| 
Db|-----0-------0-------0-------0---|------3--3--| 
Ab|-3-------3-------3-------3-------|-3----1--3--| 
Eb|---------------------------------|---------1--| 


After Chorus 

Eb|--1p0-------0---------------------|-1p0-------0-------------------| 
Bb|--------3---------1-------0-------|-------3---------1-------------| 
Gb|----------------------------------|-------------------------------| 
Db|------0-------0-------0-------0---|-----0-------0-------0-------0-| 
Ab|----------------------------------|-------------------------------| 
Eb|--3-------3-------3-------3-------|-3-------3-------3-------3-----| 


Eb|--1p0-------0---------------------|-1p0-------0-----3-------------| 
Bb|--------3---------1-------0-------|-------3-----------------------| 
Gb|----------------------------------|-------------------------------| 
Db|------0-------0-------0-------0---|-----0-------0-------0-------0-| 
Ab|----------------------------------|-------------------------------| 
Eb|--3-------3-------3-------3-------|-3-------3-------3-------3-----| 


verse 2 

Eb||--1p0-------0---------------------|-1p0-------0-------------------| 
Bb||--------3---------1-------0-------|-------3---------1-------------| 
Gb||----------------------------------|-------------------------------| 
Db||------0-------0-------0-------0---|-----0-------0-------0-------0-| 
Ab||----------------------------------|-------------------------------| 
Eb||--3-------3-------3-------3-------|-3-------3-------3-------3-----| 


Eb|--1p0-------0---------------------|-1p0-------0-----3-------------|| 
Bb|--------3---------1-------0-------|-------3-----------------------|| 
Gb|----------------------------------|-------------------------------|| 
Db|------0-------0-------0-------0---|-----0-------0-------0-------0-|| x2 
Ab|----------------------------------|-------------------------------|| 
Eb|--3-------3-------3-------3-------|-3-------3-------3-------3-----|| 


Chorus 2 

Eb||--------------------------------|--------------------------------------|| 
Bb||--8---------8-----8---------8---|-12---------12-----12---------12------|| 
Gb||--------0---------------0-------|--------0-----------------0-----------|| 
Db||------0-------0-------0-------0-|------0--------0--------0--------0----|| x2 
Ab||--6-------6-------6-------6-----|-10-------10-------10-------10--------|| 
Eb||--------------------------------|--------------------------------------|| 


Eb|---------------------------------|-----------------------------------| 
Bb|-10---------10----10--------10---|--8----------8------8----------8---| 
Gb|--------0---------------0--------|--------0-----------------0--------| 
Db|------0-------0-------0--------0-|------0--------0--------0--------0-| 
Ab|--8-------8-------8-------8------|-10-------10-------10-------10-----| 
Eb|---------------------------------|-----------------------------------| 


Eb|-------------------------------|---------------------------------| 
Bb|-8---------8-----8---------8---|-7---------7-----7-------7-------| 
Gb|-------0---------------0-------|-------0---------------0---------| 
Db|-----0-------0-------0-------0-|-----0-------0-------0-------0---| 
Ab|-6-------6-------6-------6-----|-5-------5-------5-------5-------| 
Eb|-------------------------------|---------------------------------| 


Eb|---------------------------------|------------| 
Bb|-5---------5-----6---------6-----|------------| 
Gb|-------0---------------0---------|-3----3-----| 
Db|-----0-------0-------0-------0---|------3--3--| 
Ab|-3-------3-------3-------3-------|-3----1--3--| 
Eb|---------------------------------|---------1--| 


After Chorus 

Eb|--1p0-------0---------------------|-1p0-------0-------------------| 
Bb|--------3---------1-------0-------|-------3---------1-------------| 
Gb|----------------------------------|-------------------------------| 
Db|------0-------0-------0-------0---|-----0-------0-------0-------0-| 
Ab|----------------------------------|-------------------------------| 
Eb|--3-------3-------3-------3-------|-3-------3-------3-------3-----| 


Eb|--1p0-------0---------------------|-1p0-------0-----3-------------| 
Bb|--------3---------1-------0-------|-------3-----------------------| 
Gb|----------------------------------|-------------------------------| 
Db|------0-------0-------0-------0---|-----0-------0-------0-------0-| 
Ab|----------------------------------|-------------------------------| 
Eb|--3-------3-------3-------3-------|-3-------3-------3-------3-----| 


Chords under solo 

Eb|-------------|-------0----|-------------|-------0----| 
Bb|-------0-----|-----0------|-------0-----|-----0------| 
Gb|-----0----0--|---0--------|-----0----0--|---0--------| 
Db|---2---------|------------|---2---------|------------| 
Ab|-------------|-2----------|-------------|-2----------| 
Eb|-0-----------|-3----------|-0-----------|-3----------| 


Eb|---------------------------------|-----------------------------------| 
Bb|-10---------10----10--------10---|--8----------8------8----------8---| 
Gb|--------0---------------0--------|--------0-----------------0--------| 
Db|------0-------0-------0--------0-|------0--------0--------0--------0-| 
Ab|--8-------8-------8-------8------|-10-------10-------10-------10-----| 
Eb|---------------------------------|-----------------------------------| 


Eb|-------------------------------|---------------------------------| 
Bb|-8---------8-----8---------8---|-7---------7-----7-------7-------| 
Gb|-------0---------------0-------|-------0---------------0---------| 
Db|-----0-------0-------0-------0-|-----0-------0-------0-------0---| 
Ab|-6-------6-------6-------6-----|-5-------5-------5-------5-------| 
Eb|-------------------------------|---------------------------------| 


Eb|---------------------------------|------------| 
Bb|-5---------5-----6---------6-----|------------| 
Gb|-------0---------------0---------|-3----3-----| 
Db|-----0-------0-------0-------0---|------3--3--| 
Ab|-3-------3-------3-------3-------|-3----1--3--| 
Eb|---------------------------------|---------1--| 


Solo 

Eb|---------------------|------------------------|----10-(10)--12-10----------| 
Bb|---------------------|-------------8---8-8-10/|/12----------------\10-8----| 
Gb|---------------------|---7-7-9-7-9---9--------|-------------------------9--| 
Db|-----------------5-7/|/9----------------------|----------------------------| 
Ab|-----------5-6-7-----|------------------------|----------------------------| 
Eb|-----5-6-7-----------|------------------------|----------------------------| 


Eb|---------------------------|-12--------------------------------10-|-(10)--8--8--/8-----| 
Bb|-8--10-8-10b12----------12-|----15-12----------------------/12-12-|-(12)-10-10-----8---| 
Gb|---------------------12----|----------15-14-12----12-(12)---------|------------------9-| 
Db|------------------14-------|-------------------14-----------------|--------------------| 
Ab|---------------------------|--------------------------------------|--------------------| 
Eb|---------------------------|--------------------------------------|--------------------| 


Eb|-/12-----------------------------|-------------------------10-8-7----| 
Bb|-----13--------------------------|-------------15--------------------| 
Gb|--------12--------12-14/15-14p12-|-14p12----12----12-(12)---------10/| 
Db|-----------14--14----------------|-------14--------------------------| 
Ab|---------------------------------|-----------------------------------| 
Eb|---------------------------------|-----------------------------------| 


Eb|--------------------------------------| 
Bb|--------------------------------------| 
Gb|-11-7---------------------------------| 
Db|------7--------12-0-(0)-2-0-3p2p0-2-0-| 
Ab|--------0-9/10------------------------| 
Eb|--------------------------------------| 


Eb|-----------------------------1---|---6---------------------------| 
Bb|---------------------1---3-----3/|/8---\6-5-6-5------------------| 
Gb|---------0---2---3-0---2---3-----|--------------7-6-5-3----------| 
Db|-2---3-0---2---3-----------------|----------------------5-3------| 
Ab|---3-----------------------------|--------------------------5-3--| 
Eb|---------------------------------|-------------------------------| 


Eb|-----------|--------------|------| 
Bb|-----------|--------------|------| 
Gb|-----------|--------------|------| 
Db|-/5--------|-(5)----3-----|------| 
Ab|-----------|--------------|------| 
Eb|-----------|-----------6--|-3----| 


After Solo 

Eb|--1p0-------0---------------------|-1p0-------0-------------------| 
Bb|--------3---------1-------0-------|-------3---------1-------------| 
Gb|----------------------------------|-------------------------------| 
Db|------0-------0-------0-------0---|-----0-------0-------0-------0-| 
Ab|----------------------------------|-------------------------------| 
Eb|--3-------3-------3-------3-------|-3-------3-------3-------3-----| 


Eb|--1p0-------0---------------------|-1p0-------0-----3-------------| 
Bb|--------3---------1-------0-------|-------3-----------------------| 
Gb|----------------------------------|-------------------------------| 
Db|------0-------0-------0-------0---|-----0-------0-------0-------0-| 
Ab|----------------------------------|-------------------------------| 
Eb|--3-------3-------3-------3-------|-3-------3-------3-------3-----| 


verse 3 

Eb|-----------------|-----------------|-----------------|----------| 
Bb|-----------------|-----------------|-----------------|----------| 
Gb|-----------------|-----------------|-----------------|-3-----0--| 
Db|-----------------|-----------------|-----------------|-3--3--0--| 
Ab|-----------------|-----------------|-----------------|-1--3-----| 
Eb|-3-3-3-3-3-3-3-3-|-3-3-3-3-3-3-3-3-|-3-3-3-3-3-3-3-3-|----1--3--| 


Final Chorus 

Eb||--------------------------------|--------------------------------------|| 
Bb||--8---------8-----8---------8---|-12---------12-----12---------12------|| 
Gb||--------0---------------0-------|--------0-----------------0-----------|| 
Db||------0-------0-------0-------0-|------0--------0--------0--------0----|| x2 
Ab||--6-------6-------6-------6-----|-10-------10-------10-------10--------|| 
Eb||--------------------------------|--------------------------------------|| 


Eb|---------------------------------|-----------------------------------| 
Bb|-10---------10----10--------10---|--8----------8------8----------8---| 
Gb|--------0---------------0--------|--------0-----------------0--------| 
Db|------0-------0-------0--------0-|------0--------0--------0--------0-| 
Ab|--8-------8-------8-------8------|-10-------10-------10-------10-----| 
Eb|---------------------------------|-----------------------------------| 


Eb|-------------------------------|---------------------------------| 
Bb|-8---------8-----8---------8---|-7---------7-----7-------7-------| 
Gb|-------0---------------0-------|-------0---------------0---------| 
Db|-----0-------0-------0-------0-|-----0-------0-------0-------0---| 
Ab|-6-------6-------6-------6-----|-5-------5-------5-------5-------| 
Eb|-------------------------------|---------------------------------| 


Eb|---------------------------------|------------| 
Bb|-5---------5-----6---------6-----|------------| 
Gb|-------0---------------0---------|-3----3-----| 
Db|-----0-------0-------0-------0---|------3--3--| 
Ab|-3-------3-------3-------3-------|-3----1--3--| 
Eb|---------------------------------|---------1--| 


Outro 

Eb|--1p0-------0---------------------|-1p0-------0-------------------| 
Bb|--------3---------1-------0-------|-------3---------1-------------| 
Gb|----------------------------------|-------------------------------| 
Db|------0-------0-------0-------0---|-----0-------0-------0-------0-| 
Ab|----------------------------------|-------------------------------| 
Eb|--3-------3-------3-------3-------|-3-------3-------3-------3-----| 


Eb|--1p0-------0---------------------|-1p0-------0-----3-------------| 
Bb|--------3---------1-------0-------|-------3-----------------------| 
Gb|----------------------------------|-------------------------------| 
Db|------0-------0-------0-------0---|-----0-------0-------0-------0-| 
Ab|----------------------------------|-------------------------------| 
Eb|--3-------3-------3-------3-------|-3-------3-------3-------3-----| 


Eb|--1p0-------0---------------------|-1p0-------0-------------------| 
Bb|--------3---------1-------0-------|-------3---------1-------------| 
Gb|----------------------------------|-------------------------------| 
Db|------0-------0-------0-------0---|-----0-------0-------0-------0-| 
Ab|----------------------------------|-------------------------------| 
Eb|--3-------3-------3-------3-------|-3-------3-------3-------3-----| 


Eb|--1p0-------0---------------------|--------------| 
Bb|--------3---------1-------0-------|--------------| 
Gb|----------------------------------|-3---------0--| 
Db|------0-------0-------0-------0---|-3----3----0--| 
Ab|----------------------------------|-1----3-------| 
Eb|--3-------3-------3-------3-------|------1----3--| 



***********************************  
|  /  Slide up  
|  \  Slide down  
|  h  Hammer-on 
|  p  Pull-off 
|  b  Bend  
|  =  Hold Bend 
| (n) Ghost Note 
*********************************** 
    	
fixar
fixar inscrever-se

enviado porenviado por: renejunior
cifra enviadaCorrigida por: sem correções
logo top cifrasComente
ico música do artistaMúsicas deste artista
ico curtiuCurtiu?
ico destaqueDestaque
Petaxxon Comunicação Online

Cifras.com.br - Melhor e mais completo site de cifras e tablaturas do Brasil Mais de 1 milhão de acordes de músicas cadastradas desde 2003
As informações contidas no nosso site são colaborações de seus usuários e podem conter erros, sendo assim, não nos responsabilizamos sobre nenhuma destas.

close
menos
mais
close
Cor dos acordes:

Cor da letra:

close
Alinhar acordes a direita Alinhar acordes a esquerda Alinhar acordes em baixo Alinhar acordes no topo
close
  Mostrar todos os acordes Esconder acordes muito fáceis Esconder acordes fáceis Esconder acordes intermediários
redimensionar
glossário