Cifras e Tablaturas
Cifras Cancelar Versão de Impressão
cifras

Neil Halstead - Sandy

fixar na tela  
Exibindo: vídeo-aula ver clipes redimensionar

Tom:

  
Intro 
e|-5--------------------------5----------------------------------------------| 
C|---------7---4--------2p0----------------4----2--0-------------------------| 
G|-----5-----------0-------------------5-------------------------------------| 
C|---5---5--5----0---0-----0---------5---5----0------------------------------| 
G|-------------------------------5h7-----------------------------------------| 
C|-5-----------0--------------5------------0---------------------------------| 

e|-5-------------------------------------------------------------------------| 
C|---------7----0----------0--0h2-------0------------------------------------| 
G|-----5-------------0--------------0----------------------------------------| 
C|---5---5---5-----0--------------2---2---0----------------------------------| 
G|--------------2------2h4----0----------------------------------------------| 
C|-5-------------------------------------------------------------------------| 

e|-5--------------------------5----------------------------------------------| 
C|---------7---4--------2p0----------------4----2--0-------------------------| 
G|-----5-----------0-------------------5-------------------------------------| 
C|---5---5--5----0---0-----0---------5---5----0------------------------------| 
G|-------------------------------5h7-----------------------------------------| 
C|-5-----------0--------------5------------0---------------------------------| 

e|-5--------------------------------------------------------------------11---| 
C|---------7----0----------0--0h2-------2----4--------4----5--------5--------| 
G|-----5-------------0--------------0------------0--------------0------------| 
C|---5---5---5-----0--------------2---2---2----4---4----4-----5---5---5------| 
G|--------------2------2h4----0--------------0-------------0------------0----| 
C|-5-------------------------------------------------------------------------| 

Verse 
e|-5-------------------------------------------------------------------------| 
C|----------7-----4-------0----0--------0-----4--------0---------------------| 
G|-----5--------------0-------------0--------------0-------------------------| 
C|---5---5----0-----0---0---0-----0---0---0------0---0---0-------------------|                
G|-----------------------------2---------------------------------------------| 
C|-5--------------0---------------------------0------------------------------|               
                                                                                           
e|-5------------------------------------------------------------------------------------|    
C|----------7-----4-------0----0--------0-----0h2-------2---/-4--------0----2-------0---| 
G|-----5--------------0-------------0---------------0--------------0------------0-------| 
C|---5---5----0-----0---0---0-----0---0---0-------2---2---2/-----4---4---4----2---2---2-| 
G|-----------------------------2--------------0---------------0-------------0-----------| 
C|-5--------------0---------------------------------------------------------------------| 

e|-5-------------------------------------------------------------------------| 
C|----------7-----4-------0----0--------0-----4--------0---------------------| 
G|-----5--------------0-------------0--------------0-------------------------| 
C|---5---5----0-----0---0---0-----0---0---0------0---0---0-------------------|                
G|-----------------------------2---------------------------------------------| 
C|-5--------------0---------------------------0------------------------------|               
                                                                                           
e|-5------------------------------------------------------------------------------------|    
C|----------7-----4-------0----0--------0-----0h2-------2---/-4--------0----2-------0---| 
G|-----5--------------0-------------0---------------0--------------0------------0-------| 
C|---5---5----0-----0---0---0-----0---0---0-------2---2---2/-----4---4---4----2---2---2-| 
G|-----------------------------2--------------0---------------0-------------0-----------| 
C|-5--------------0---------------------------------------------------------------------| 

Bridge} 
e|------------------------------------------7--------------------------------| 
C|-0--------0----0--------0----4-------4------------7------------------------| 
G|-----0-------------0-------------0------------7-------7-------7------------| 
C|---0---0----0----0---0----0----0---0---0----7---7---7-------7--------------| 
G|-2------------------------------------------------------7h9-----7----------| 
C|---------------5-------------0------------7--------------------------------| 

e|------------------------------------------7--------------------------------| 
C|-0--------0----0--------0----4-------4------------7------------------------| 
G|-----0-------------0-------------0------------7-------7-------7------------| 
C|---0---0----0----0---0----0----0---0---0----7---7---7-------7--------------| 
G|-2------------------------------------------------------7h9-----7----------| 
C|---------------5-------------0------------7--------------------------------| 

Chorus 
e|-5--------------------------5--------------------------------------------------------| 
C|---------5----4--------0------------5----4-------0----2--------2----2-------0--------| 
G|-----5-------------0------------5------------0-------------0------------0------------| 
C|---5---5---5-----0---0---0----5---5---5----0---0---0-----2---2---2----2---2---2------| 
G|------------------------------------------------------0-------------0----------------| 
C|-5------------0-------------5------------0-------------------------------------------| 

e|-5--------------------------5-----------------------------------------------------------------------------| 
C|---------5----4--------0------------5----4-------0----2-------2----4-------4----2--------2----2-------0---| 
G|-----5-------------0------------5------------0------------0------------0-------------0------------0-------| 
C|---5---5---5-----0---0---0----5---5---5----0---0---0----2---2---2----4---4---4-----2---2---2----2---2---2-| 
G|------------------------------------------------------0------------0------------0-------------0-----------| 
C|-5------------0-------------5------------0----------------------------------------------------------------|  


************************************ 

| h   Hammer-on 
| p   Pull-off 
| /   Slide up 

************************************ 
  

top 5 | neil halstead
top rock alternativo
Outras músicas do artista letras do(a) Neil Halstead
Top cifras »Top artistas »
Petaxxon Comunicação Online
Cifras.com.br - Melhor e mais completo site de cifras e tablaturas do Brasil
Mais de 1 milhão de acordes de músicas cadastradas desde 2003
As informações contidas no nosso site são colaborações de seus usuários e podem conter erros, sendo assim, não nos responsabilizamos sobre nenhuma destas.
close
menos
mais
close
Cor dos acordes:

Cor da letra:

 

save
close
close
 
redimensionar