Cifras e Tablaturas
New Order

New Order

Love Less

Cifras Cancelar Versão de Impressão

New Order - Love Less

Tom:

  			
Intro 

G|------------| 
D|-9~---------| 
A|------------| 
E|------------| 

Pre-Verse 

G|-9---9-9-9-9-9-13-|---13-13-13---13-13-13-|-6---6-6-6-6-6-6-|---5-6-5-6-5-6-8-|  x2 
D|------------------|-----------------------|-----------------|-----------------| 
A|------------------|-----------------------|-----------------|-----------------| 
E|------------------|-----------------------|-----------------|-----------------| 

Verse 

G|-9---9-9-9-9-9-13-|---13-13-13---13-13-13-|-6---6-6-6-6-6-6-|---5-6-5-6-5-6-8-|  x3 
D|------------------|-----------------------|-----------------|-----------------| 
A|------------------|-----------------------|-----------------|-----------------| 
E|------------------|-----------------------|-----------------|-----------------| 

G|-9---9-9-9-9-9-13-|---13-13-13---13-13-13-|-6---6-6-6-6-6-11-|---11-11-11-11-9-8---| 
D|------------------|-----------------------|------------------|---------------------| 
A|------------------|-----------------------|------------------|---------------------| 
E|------------------|-----------------------|------------------|---------------------| 

Chorus 

G|-13---13-13-13-13-13-17-|---17-17-17---17---17-|-17---13---13-9-13-11-|---9---9---4-6-9-|  x2 
D|------------------------|----------------------|----------------------|-----------------| 
A|------------------------|----------------------|----------------------|-----------------| 
E|------------------------|----------------------|----------------------|-----------------| 

Pre-Verse 

G|-9---9-9-9-9-9-13-|---13-13-13---13-13-13-|-6---6-6-6-6-6-6-|---5-6-5-6-5-6-8-| 
D|------------------|-----------------------|-----------------|-----------------| 
A|------------------|-----------------------|-----------------|-----------------| 
E|------------------|-----------------------|-----------------|-----------------| 

G|-9---9-9-9-9-9-13-|---13-13-13---13-13-13-|-6---6-6-6-6-6-11-|---11-11-11-11-11-9-8-| 
D|------------------|-----------------------|------------------|----------------------| 
A|------------------|-----------------------|------------------|----------------------| 
E|------------------|-----------------------|------------------|----------------------| 

Verse 

G|-9---9-9-9-9-9-13-|---13-13-13---13-13-13-|-6---6-6-6-6-6-6-|---5-6-5-6-5-6-8-|  x3 
D|------------------|-----------------------|-----------------|-----------------| 
A|------------------|-----------------------|-----------------|-----------------| 
E|------------------|-----------------------|-----------------|-----------------| 

G|-9---9-9-9-9-9-13-|---13-13-13---13-13-13-|-6---6-6-6-6-6-11-|---11-11-11-11-9-8---| 
D|------------------|-----------------------|------------------|---------------------| 
A|------------------|-----------------------|------------------|---------------------| 
E|------------------|-----------------------|------------------|---------------------| 

Chorus 

G|-13---13-13-13-13-13-17-|---17-17-17---17---17-|-17-----13-13-9-13-11-|---9---9---4-6-9-|  x2 
D|------------------------|----------------------|----------------------|-----------------| 
A|------------------------|----------------------|----------------------|-----------------| 
E|------------------------|----------------------|----------------------|-----------------| 

Instrumental 

G|-9---9-9-9-9-9-13-|---13-13-13---13-13-13-|-6---6-6-6-6-6-6-|---5-6-5-6-5-6-8-|  x3 
D|------------------|-----------------------|-----------------|-----------------| 
A|------------------|-----------------------|-----------------|-----------------| 
E|------------------|-----------------------|-----------------|-----------------| 

G|-9---9-9-9-9-9-13-|---13-13-13---13-13-13-|-6---6-6-6-6-6-11-|---11-11-11-11-9-8---| 
D|------------------|-----------------------|------------------|---------------------| 
A|------------------|-----------------------|------------------|---------------------| 
E|------------------|-----------------------|------------------|---------------------| 

Chorus 

G|-13---13-13-13-13-13-17-|---17-17-17---17---17-|-17-----13-13-9-13-11-|---9---9---4-6-9-|  x2 
D|------------------------|----------------------|----------------------|-----------------| 
A|------------------------|----------------------|----------------------|-----------------| 
E|------------------------|----------------------|----------------------|-----------------| 

Outro Verse 

G|-9---9-9-9-9-9-13-|---13-13-13---13-13-13-|-6---6-6-6-6-6-6-|---5-6-5-6-5-6-8-| 
D|------------------|-----------------------|-----------------|-----------------| 
A|------------------|-----------------------|-----------------|-----------------| 
E|------------------|-----------------------|-----------------|-----------------| 

G|-9---9-9-9-9-9-13-|---13-13-13---13-13-13-|-6---6-6-6-6-6-11-|---11-11-11-11-9-8-8-|-9-| 
D|------------------|-----------------------|------------------|---------------------|---| 
A|------------------|-----------------------|------------------|---------------------|---| 
E|------------------|-----------------------|------------------|---------------------|---| 


************************************ 

| ~   Vibrato 

************************************ 
    	
fixar
fixar inscrever-se

enviado porenviado por: brunblazkowski
cifra enviadaCorrigida por: sem correções
logo top cifrasComente
ico música do artistaMúsicas deste artista
ico curtiuCurtiu?
ico destaqueDestaque
Petaxxon Comunicação Online

Cifras.com.br - Melhor e mais completo site de cifras e tablaturas do Brasil Mais de 1 milhão de acordes de músicas cadastradas desde 2003
As informações contidas no nosso site são colaborações de seus usuários e podem conter erros, sendo assim, não nos responsabilizamos sobre nenhuma destas.

close
menos
mais
close
Cor dos acordes:

Cor da letra:

close
Alinhar acordes a direita Alinhar acordes a esquerda Alinhar acordes em baixo Alinhar acordes no topo
close
  Mostrar todos os acordes Esconder acordes muito fáceis Esconder acordes fáceis Esconder acordes intermediários
redimensionar
glossário