Cifras e Tablaturas
Nick Mulvey

Nick Mulvey

In Your Hands

Cifras Cancelar Versão de Impressão
cifras

Nick Mulvey - In Your Hands

fixar na tela  
Exibindo: vídeo-aula ver clipes redimensionar
  Chords 
      D#        A#        F 
E|--0---------0---------0-----------------------------------| 
B|--3---------3---------3-----------------------------------| 
G|--0---------0---------0-----------------------------------| 
D|--4---------4---------0-----------------------------------| 
A|--5---------0---------2-----------------------------------| 
D|--0---------X---------2-----------------------------------| 

Intro 
E|----------------------------------------------------------------| 
B|----------------------------------------------------------------| 
G|----------------------------------------------------------------| 
D|-----------0----------------------------0-----------------------| 
A|---2--2h4-----2-----5\4\2p0-----2--2h4-----2-----5\4\2p0--------| 
D|-----------------5-----------2----------------2-----------5-----| 

verse 1 
D#                       A# 
See them come together 
                           F 
Oh they would not be apart 
D#                       A# 
For every other there's another 
                               F 
And that's the only way to start 

D#                       A# 
Can live as one as lovers 
                      F 
Live as two as enemies 
D#                               A# 
So many never know the difference 
                             F 
Come step in the dark with me 

tabrefrão
Chorus D# With the pale light in your hands A# F For understand how loving can be D# With the pale light in your hands A# F For understand how it can be
refrão
verse 2 D# A# A vicious craving in my bones F A needing burning in my mind D# A# Kept me one step away F From something I could not find D# A# Until I looked inside my aching heart F And saw a hive of honey bees D# A# Making honey from my darkness F Gold from my disease D# So now I see A# Can know the world as a lover F Can know the world as an enemy D# A# So many never know the difference F Come step in the dark with me
tabrefrão
Chorus D# With the pale light in your hands A# F For understand how loving can be D# With the pale light in your hands A# F For understand how it can be
refrão
Bridge Play once before starting to sing. E|----------------------------------------------------------------| B|----------------------------------------------------------------| G|----------------------------------------------------------------| D|-----------0----------------------------0-----------------------| A|---2--2h4-----2-----5\4\2p0-----2--2h4-----2-----5\4\2p0--------| D|-----------------5-----------2----------------2-----------5-----| Calling out, yeah Calling out, yeah Yeah yeah Yeah yeah Chant D# Ananana eh A# Anana e-eh F F Ahna eh-eh ************************************ | x Dead note | h Hammer-on | p Pull-off | / Slide up | \ Slide down ************************************

cifra enviadasem correções
enviado porenviada por:aman_claudino
top 5 | nick mulvey
top rock'n roll
Outras músicas do artista letras do(a) Nick Mulvey
Top cifras »Top artistas »
Petaxxon Comunicação Online
Cifras.com.br - Melhor e mais completo site de cifras e tablaturas do Brasil
Mais de 1 milhão de acordes de músicas cadastradas desde 2003
As informações contidas no nosso site são colaborações de seus usuários e podem conter erros, sendo assim, não nos responsabilizamos sobre nenhuma destas.
close
menos
mais
close
Cor dos acordes:

Cor da letra:

 

save
close
close
 
redimensionar