Cifras e Tablaturas
Nightwish

Nightwish

Wanderlust

Cifras Cancelar Versão de Impressão

Nightwish - Wanderlust

Tom:

  			 
E||----------------------------------|----------------------------------|  
B||----------------------------------|----------------------------------|  
G||----------------------------------|----------------------------------|  
D||----------------------------------|----------------------------------|  
A||--5-5-5-5-5-5-5-5-5-5-5-5-5-5-5-5-|----------------------------------|  
E||----------------------------------|--1-1-1-1-1-1-1-1-1-1-1-1-1-1-1-1-|  
 
 
                                                                        
----------------------------------|----------------------------------|  
----------------------------------|----------------------------------|  
----------------------------------|----------------------------------|  
----------------------------------|----------------------------------|  
----------------------------------|----------------------------------|  
--3-3-3-3-3-3-3-3-3-3-3-3-3-3-3-3-|--3-3-3-3-3-3-3-3-5-5-5-5-5-5-5-5-|  
 
 
                                                                        
----------------------------------|----------------------------------|  
----------------------------------|----------------------------------|  
----------------------------------|----------------------------------|  
----------------------------------|----------------------------------|  
--5-5-5-5-5-5-5-5-5-5-5-5-5-5-5-5-|----------------------------------|  
----------------------------------|--1-1-1-1-1-1-1-1-1-1-1-1-1-1-1-1-|  
 
 
                                                                        
----------------------------------|----------------------------------|  
----------------------------------|----------------------------------|  
----------------------------------|----------------------------------|  
----------------------------------|----------------------------------|  
----------------------------------|------------------1-1-1-1-0-0-0-0-|  
--3-3-3-3-3-3-3-3-3-3-3-3-3-3-3-3-|--3-3-3-3-3-3-3-3-----------------|  
 
 
                                                              
-------------------|-------------------|-------------------|  
-------------------|-------------------|-------------------|  
-------------------|-------------------|-------------------|  
--3----------------|-------------------|-------------------|  
--1----------------|--5----------------|--3----------------|  
-------------------|--3----------------|--1----------------|  
 
 
                                                               
--------------------|-------------------|-------------------|  
--------------------|-------------------|-------------------|  
--------------------|--2----------------|-------------------|  
--5--------6--------|--0----------------|-------------------|  
--3--------4--------|-------------------|--3----------------|  
--------------------|-------------------|--1----------------|  
 
 
                                                               
-------------------|--------------------|-------------------|  
-------------------|--------------------|-------------------|  
-------------------|--------------------|--2----------------|  
-------------------|-----------2--------|--0----------------|  
--5----------------|--5--------0--------|-------------------|  
--3----------------|--3-----------------|-------------------|  
 
 
                                                                
-------------------|-------------------|---------------------|  
-------------------|-------------------|---------------------|  
-------------------|-------------------|---------------------|  
-------------------|-------------------|-----------3----2----|  
--3----------------|--5----------------|--5--------1----0----|  
--1----------------|--3----------------|--3------------------|  
 
 
                                                                       
-------------------|-------------------|----------------------------|  
-------------------|-------------------|----------------------------|  
-------------------|--3----------------|--2-2-2--2--2-2--2-2--2--2--|  
--3----------------|--1----------------|--0-0-0--0--0-0--0-0--0--0--|  
--1----------------|-------------------|----------------------------|  
-------------------|-------------------|----------------------------|  
 
 
                                                                       
----------------------------|-------------------|-------------------|  
----------------------------|-------------------|-------------------|  
--2-2-2--2--2-2--2-2--2--2--|-------------------|--3----------------|  
--0-0-0--0--0-0--0-0--0--0--|--3----------------|--1----------------|  
----------------------------|--1----------------|-------------------|  
----------------------------|-------------------|-------------------|  
 
 
                                                                                  
-------------------|-------------------|-------------------|-------------------|  
-------------------|-------------------|-------------------|-------------------|  
-------------------|-------------------|-------------------|-------------------|  
-------------------|-------------------|-------------------|--5----------------|  
--3----------------|----------3--------|--5----------------|--3----------------|  
--1----------------|----------1--------|--3----------------|-------------------|  
 
 
                                                                
--------------------|--------------------|-------------------|  
--------------------|--------------------|-------------------|  
--3-----------------|--------------------|-------------------|  
--1-----------------|--3-----------------|-------------------|  
-----------3--------|--1--------3--------|--5----------------|  
-----------1--------|-----------1--------|--3----------------|  
 
 
                                                                  
-------------------|----------------------|--------------------|  
-------------------|----------------------|--------------------|  
--3----------------|-------2----3----5----|--------------------|  
--1----------------|--5----0----1----3----|--3-----------------|  
-------------------|--3-------------------|--1--------3--------|  
-------------------|----------------------|-----------1--------|  
 
 
                                                                 
--------------------|--------------------|--------------------|  
--------------------|--------------------|--------------------|  
--------------------|--3--------2--------|--------------------|  
--------------------|--1--------0--------|-----------5--------|  
--5--------3--------|--------------------|--5--------3--------|  
--3--------1--------|--------------------|--3-----------------|  
 
 
                                                          
--------------------|----------------------------------|  
--------------------|----------------------------------|  
--------------------|----------------------------------|  
--3-----------------|----------------------------------|  
--1--------3--------|--5-5-5-5-5-5-5-5-5-5-5-5-5-5-5-5-|  
-----------1--------|----------------------------------|  
 
 
                                                                        
----------------------------------|----------------------------------|  
----------------------------------|----------------------------------|  
----------------------------------|----------------------------------|  
----------------------------------|----------------------------------|  
----------------------------------|----------------------------------|  
--1-1-1-1-1-1-1-1-1-1-1-1-1-1-1-1-|--3-3-3-3-3-3-3-3-3-3-3-3-3-3-3-3-|  
 
 
                                                                        
----------------------------------|----------------------------------|  
----------------------------------|----------------------------------|  
----------------------------------|----------------------------------|  
----------------------------------|----------------------------------|  
----------------------------------|--5-5-5-5-5-5-5-5-5-5-5-5-5-5-5-5-|  
--3-3-3-3-3-3-3-3-5-5-5-5-5-5-5-5-|----------------------------------|  
 
 
                                                                        
----------------------------------|----------------------------------|  
----------------------------------|----------------------------------|  
----------------------------------|----------------------------------|  
----------------------------------|----------------------------------|  
----------------------------------|----------------------------------|  
--1-1-1-1-1-1-1-1-1-1-1-1-1-1-1-1-|--3-3-3-3-3-3-3-3-3-3-3-3-3-3-3-3-|  
 
 
                                                                             
----------------------------------|-------------------|-------------------|  
----------------------------------|-------------------|-------------------|  
----------------------------------|-------------------|-------------------|  
----------------------------------|--3----------------|-------------------|  
------------------1-1-1-1-0-0-0-0-|--1----------------|--5----------------|  
--3-3-3-3-3-3-3-3-----------------|-------------------|--3----------------|  
 
 
                                                               
-------------------|--------------------|-------------------|  
-------------------|--------------------|-------------------|  
-------------------|--------------------|--2----------------|  
-------------------|--5--------6--------|--0----------------|  
--3----------------|--3--------4--------|-------------------|  
--1----------------|--------------------|-------------------|  
 
 
                                                               
-------------------|-------------------|--------------------|  
-------------------|-------------------|--------------------|  
-------------------|-------------------|--------------------|  
-------------------|-------------------|-----------2--------|  
--3----------------|--5----------------|--5--------0--------|  
--1----------------|--3----------------|--3-----------------|  
 
 
                                                              
-------------------|-------------------|-------------------|  
-------------------|-------------------|-------------------|  
--2----------------|-------------------|-------------------|  
--0----------------|-------------------|-------------------|  
-------------------|--3----------------|--5----------------|  
-------------------|--1----------------|--3----------------|  
 
 
                                                                
---------------------|-------------------|-------------------|  
---------------------|-------------------|-------------------|  
---------------------|-------------------|--3----------------|  
-----------3----2----|--3----------------|--1----------------|  
--5--------1----0----|--1----------------|-------------------|  
--3------------------|-------------------|-------------------|  
 
 
                                                                                
----------------------------|----------------------------|-------------------|  
----------------------------|----------------------------|-------------------|  
--2-2-2--2--2-2--2-2--2--2--|--2-2-2--2--2-2--2-2--2--2--|-------------------|  
--0-0-0--0--0-0--0-0--0--0--|--0-0-0--0--0-0--0-0--0--0--|--3----------------|  
----------------------------|----------------------------|--1----------------|  
----------------------------|----------------------------|-------------------|  
 
 
                                                                                  
-------------------|-------------------|-------------------|-------------------|  
-------------------|-------------------|-------------------|-------------------|  
--3----------------|-------------------|-------------------|-------------------|  
--1----------------|-------------------|-------------------|-------------------|  
-------------------|--3----------------|----------3--------|--5----------------|  
-------------------|--1----------------|----------1--------|--3----------------|  
 
 
                                                                
-------------------|--------------------|--------------------|  
-------------------|--------------------|--------------------|  
-------------------|--3-----------------|--------------------|  
--5----------------|--1-----------------|--3-----------------|  
--3----------------|-----------3--------|--1--------3--------|  
-------------------|-----------1--------|-----------1--------|  
 
 
                                                                 
-------------------|-------------------|----------------------|  
-------------------|-------------------|----------------------|  
-------------------|--3----------------|-------2----3----5----|  
-------------------|--1----------------|--5----0----1----3----|  
--5----------------|-------------------|--3-------------------|  
--3----------------|-------------------|----------------------|  
 
 
                                                                 
--------------------|--------------------|--------------------|  
--------------------|--------------------|--------------------|  
--------------------|--------------------|--3--------2--------|  
--3-----------------|--------------------|--1--------0--------|  
--1--------3--------|--5--------3--------|--------------------|  
-----------1--------|--3--------1--------|--------------------|  
 
 
                                                                 
--------------------|--------------------|--------------------|  
--------------------|--------------------|--------------------|  
--------------------|--------------------|--------------------|  
-----------5--------|--3-----------------|--------------------|  
--5--------3--------|--1--------3--------|--5--------------5--|  
--3-----------------|-----------1--------|--3--------------3--|  
 
 
                                                                   
---------------------|--------------------|---------------------|  
---------------------|--------------------|---------------------|  
---------------------|--------------------|---------------------|  
---------------------|--------------------|---------------------|  
--5--------6----3----|--5--------------5--|--5--------6----3----|  
--3--------4----1----|--3--------------3--|--3--------4----1----|  
 
 
                                                                                  
---------------------------|-----------------------|---------------------------|  
---------------------------|-----------------------|---------------------------|  
---------------------------|-----------------------|---------------------------|  
---------------------------|-----------------------|---------------------------|  
--5----------5------5------|--5----------6----3----|--5----------5------5------|  
--3------3-3-3--3-3-3--3-3-|--3------3-3-4----1----|--3------3-3-3--3-3-3--3-3-|  
 
 
                                                                              
-----------------------|---------------------------|-----------------------|  
-----------------------|---------------------------|-----------------------|  
-----------------------|---------------------------|------------------2----|  
-----------------------|---------------------------|------------------0----|  
--5----------6----3----|--2----------2------2------|--2----------3---------|  
--3------3-3-4----1----|--0------0-0-0--0-0-0--0-0-|--0------0-0-1---------|  
 
 
                                                                                  
---------------------------|-----------------------|---------------------------|  
---------------------------|-----------------------|---------------------------|  
---------------------------|------------------2----|---------------------------|  
---------------------------|------------------0----|---------------------------|  
--2----------2------2------|--2----------3---------|--2-2-2-2-----2--2--2-3--2-|  
--0------0-0-0--0-0-0--0-0-|--0------0-0-1---------|--0-0-0-0-----0--0--0-1--0-|  
 
 
                                                         
--------------------------|---------------------------|  
--------------------------|---------------------------|  
--------------------------|---------------------------|  
--------------------------|---------------------------|  
--3--2--2----2--2--2-3--2-|--3-3-2--2----2--2--2-3--2-|  
--1--0--0----0--0--0-1--0-|--1-1-0--0----0--0--0-1--0-|  
 
 
                                                          
---------------------------|---------------------------|  
---------------------------|---------------------------|  
---------------------------|---------------------------|  
-------------2--2-2-2-0----|---------------------------|  
--3--2--2---------------4--|--2-2-2-2-----2--2--2-3--2-|  
--1--0--0------------------|--0-0-0-0-----0--0--0-1--0-|  
 
 
                                                         
--------------------------|---------------------------|  
--------------------------|---------------------------|  
--------------------------|---------------------------|  
--------------------------|---------------------------|  
--3--2--2----2--2--2-3--2-|--3-3-2--2----2--2--2-3--2-|  
--1--0--0----0--0--0-1--0-|--1-1-0--0----0--0--0-1--0-|  
 
 
                                                                     
---------------------------|-------------------|------------------|  
---------------------------|-------------------|------------------|  
---------------------------|-------------------|------------------|  
-------------2--2-2-2-0----|--6----------------|------------------|  
--3--2--2---------------4--|--4----------------|------------------|  
--1--0--0------------------|-------------------|------------------|  
 
 
                                                                                
-------------------|------------------|-------------------|------------------|  
-------------------|------------------|-------------------|------------------|  
-------------------|------------------|-------------------|------------------|  
-------------------|------------------|--6----------------|------------------|  
--2----------------|------------------|--4----------------|------------------|  
--0----------------|------------------|-------------------|------------------|  
 
 
                                                                     
-------------------|------------------|---------------------------|  
-------------------|------------------|---------------------------|  
-------------------|------------------|---------------------------|  
-------------------|------------------|---------------------------|  
--2----------------|------------------|--2-2-2-2-----2--2--2-3--2-|  
--0----------------|------------------|--0-0-0-0-----0--0--0-1--0-|  
 
 
                                                         
--------------------------|---------------------------|  
--------------------------|---------------------------|  
--------------------------|---------------------------|  
--------------------------|---------------------------|  
--3--2--2----2--2--2-3--2-|--3-3-2--2----2--2--2-3--2-|  
--1--0--0----0--0--0-1--0-|--1-1-0--0----0--0--0-1--0-|  
 
 
                                                          
---------------------------|---------------------------|  
---------------------------|---------------------------|  
---------------------------|---------------------------|  
-------------2--2-2-2-0----|---------------------------|  
--3--2--2---------------4--|--2-2-2-2-----2--2--2-3--2-|  
--1--0--0------------------|--0-0-0-0-----0--0--0-1--0-|  
 
 
                                                         
--------------------------|---------------------------|  
--------------------------|---------------------------|  
--------------------------|---------------------------|  
--------------------------|---------------------------|  
--3--2--2----2--2--2-3--2-|--3-3-2--2----2--2--2-3--2-|  
--1--0--0----0--0--0-1--0-|--1-1-0--0----0--0--0-1--0-|  
 
 
                                                                     
---------------------------|-------------------|------------------|  
---------------------------|-------------------|------------------|  
---------------------------|-------------------|------------------|  
-------------2--2-2-2-0----|--6----------------|------------------|  
--3--2--2---------------4--|--4----------------|------------------|  
--1--0--0------------------|-------------------|------------------|  
 
 
                                                                                
-------------------|------------------|-------------------|------------------|  
-------------------|------------------|-------------------|------------------|  
-------------------|------------------|-------------------|------------------|  
-------------------|------------------|--6----------------|------------------|  
--2----------------|------------------|--4----------------|------------------|  
--0----------------|------------------|-------------------|------------------|  
 
 
                                                                                 
-------------------|------------------|-------------------|-------------------|  
-------------------|------------------|-------------------|-------------------|  
-------------------|------------------|-------------------|-------------------|  
-------------------|------------------|--2----------------|-------------------|  
--2----------------|------------------|--0----------------|--4----------------|  
--0----------------|------------------|-------------------|--2----------------|  
 
 
                                                                                  
-------------------|------------------|-------------------|--------------------|  
-------------------|------------------|-------------------|--------------------|  
-------------------|------------------|-------------------|--------------------|  
--6----------------|------------------|-------------------|--4------------5----|  
--4----------------|------------------|--2----------------|--2------------3----|  
-------------------|------------------|--0----------------|--------------------|  
 
 
                                                                                 
-------------------|------------------|-------------------|-------------------|  
-------------------|------------------|-------------------|-------------------|  
-------------------|------------------|-------------------|-------------------|  
--6----------------|------------------|--2----------------|-------------------|  
--4----------------|------------------|--0----------------|--4----------------|  
-------------------|------------------|-------------------|--2----------------|  
 
 
                                                                                 
-------------------|------------------|-------------------|-------------------|  
-------------------|------------------|-------------------|-------------------|  
-------------------|------------------|--2----------------|-------------------|  
--6----------------|------------------|--0----------------|-------------------|  
--4----------------|------------------|-------------------|--4----------------|  
-------------------|------------------|-------------------|--2----------------|  
 
 
                                                                               
-------------------|------------------|------------------|------------------|  
-------------------|------------------|------------------|------------------|  
-------------------|------------------|------------------|------------------|  
-------------------|------------------|------------------|------------------|  
--2----------------|------------------|------------------|------------------|  
--0----------------|------------------|------------------|------------------|  
 
 
                                                                Guitar Solo  
 
 
 
                                                        
E||--------------------------------------17-13-12-10-|  
B||--------------------------13-15-17-18-------------|  
G||--14-10-------------12-14-------------------------|  
D||--------14-12-14-15-------------------------------|  
A||--------------------------------------------------|  
E||--------------------------------------------------|  
 
 
                                                   
--20--18-20-17-20----20----20-18-20-17-20----20-|  
------------------20----18----------------20----|  
------------------------------------------------|  
------------------------------------------------|  
------------------------------------------------|  
------------------------------------------------|  
 
 
                                                 
--18-17---------------------------------------|  
--------20-15---------------------------------|  
--------------15-14-------------------------2-|  
--------------------17-12-----------------5---|  
--------------------------13-12---------5-----|  
--------------------------------15-10-6-------|  
 
 
                                     
--------------------------5-3-1-0-|  
----------3-----3-5---2-5---------|  
--3-----3-----3-----2-------------|  
------5-----5---------------------|  
----5-----------------------------|  
----------------------------------|  
 
 
                                                     
--------------------------------------17-13-12-10-|  
--------------------------13-15-17-18-------------|  
--14-10-------------12-14-------------------------|  
--------14-12-14-15-------------------------------|  
--------------------------------------------------|  
--------------------------------------------------|  
 
 
                                                   
--20--18-20-17-20----20----20-18-20-17-20----20-|  
------------------20----18----------------20----|  
------------------------------------------------|  
------------------------------------------------|  
------------------------------------------------|  
------------------------------------------------|  
 
 
                                                 
--18-17---------------------------------------|  
--------20-15---------------------------------|  
--------------15-14-------------------------2-|  
--------------------17-12-----------------5---|  
--------------------------13-12---------5-----|  
--------------------------------15-10-6-------|  
 
 
                                                                                
-----------------------------------|--------------------|--------------------|  
----------3---------------10-8-6-5-|--------------------|--15----------------|  
--3-----3-------7-9---6-9----------|--15----------------|--------------------|  
------5-----5-8-----7--------------|--------------------|--------------------|  
----5------------------------------|--------------------|--------------------|  
-----------------------------------|--------------------|--------------------|  
 
 
                                                                           
--------------------------|------------------------|--------------------|  
--13--------13------------|------------------------|--------------------|  
-----------------15---14--|--12~-------------------|--------------------|  
--------------------------|----------15----14------|--12----------------|  
--------------------------|------------------------|--------------------|  
--------------------------|------------------------|--------------------|  
 
 
                                                                              
------------------|------------------|------------------|------------------|  
------------------|------------------|------------------|------------------|  
------------------|------------------|------------------|------------------|  
------------------|------------------|------------------|------------------|  
------------------|------------------|------------------|------------------|  
------------------|------------------|------------------|------------------|  
 
 
                                                                              
------------------|------------------|------------------|------------------|  
------------------|------------------|------------------|------------------|  
------------------|------------------|------------------|------------------|  
------------------|------------------|------------------|------------------|  
------------------|------------------|------------------|------------------|  
------------------|------------------|------------------|------------------|  
 
 
                                                                              
------------------|------------------|------------------|------------------|  
------------------|------------------|------------------|------------------|  
------------------|------------------|------------------|------------------|  
------------------|------------------|------------------|------------------|  
------------------|------------------|------------------|------------------|  
------------------|------------------|------------------|------------------|  
 
 
                                                                                 
------------------|------------------|------------------|---------------------|  
------------------|------------------|------------------|---------------------|  
------------------|------------------|------------------|----------7----------|  
------------------|------------------|------------------|--------------8---7--|  
------------------|------------------|------------------|---------------------|  
------------------|------------------|------------------|---------------------|  
 
 
                                                                         
----------------------|------------------------|----------------------|  
----------------------|------------------------|--6----8--------------|  
-----------7----------|-------------5---7---8--|------------7----5----|  
--5------------8---7--|--5---7---8-------------|----------------------|  
----------------------|------------------------|----------------------|  
----------------------|------------------------|----------------------|  
 
 
                                                                              
----------------------|----------------------|-----------------------------|  
----------------------|----------------------|-----------------------------|  
-----------7----------|-----------7----------|-----------------------5--5--|  
--8------------8---7--|--5------------8---7--|--5-5-5--7-7-7--8-8-8--------|  
----------------------|----------------------|-----------------------------|  
----------------------|----------------------|-----------------------------|  
 
 
                                                                           
----------------------|------------------------|------------------------|  
----------------------|------------------------|------------------------|  
--7----8----7----5----|--7---5-----------------|---------------------5--|  
----------------------|----------8--7---8---7--|--5---7---8--7----8-----|  
----------------------|------------------------|------------------------|  
----------------------|------------------------|------------------------|  
 
 
                                                  
------------------------|----------------------|  
------------------------|----------------------|  
--7---5------8---7---5--|--7----8----7----5----|  
----------8-------------|----------------------|  
------------------------|----------------------|  
------------------------|----------------------|  
 
 
                                                     
--------------------------------------17-13-12-10-|  
--------------------------13-15-17-18-------------|  
--14-10-------------12-14-------------------------|  
--------14-12-14-15-------------------------------|  
--------------------------------------------------|  
--------------------------------------------------|  
 
 
                                                   
--20--18-20-17-20----20----20-18-20-17-20----20-|  
------------------20----18----------------20----|  
------------------------------------------------|  
------------------------------------------------|  
------------------------------------------------|  
------------------------------------------------|  
 
 
                                                 
--18-17---------------------------------------|  
--------20-15---------------------------------|  
--------------15-14-------------------------2-|  
--------------------17-12-----------------5---|  
--------------------------13-12---------5-----|  
--------------------------------15-10-6-------|  
 
 
                                     
--------------------------5-3-1-0-|  
----------3-----3-5---2-5---------|  
--3-----3-----3-----2-------------|  
------5-----5---------------------|  
----5-----------------------------|  
----------------------------------|  
 
 
                                                     
--------------------------------------17-13-12-10-|  
--------------------------13-15-17-18-------------|  
--14-10-------------12-14-------------------------|  
--------14-12-14-15-------------------------------|  
--------------------------------------------------|  
--------------------------------------------------|  
 
 
                                                   
--20--18-20-17-20----20----20-18-20-17-20----20-|  
------------------20----18----------------20----|  
------------------------------------------------|  
------------------------------------------------|  
------------------------------------------------|  
------------------------------------------------|  
 
 
                                                 
--18-17---------------------------------------|  
--------20-15---------------------------------|  
--------------15-14-------------------------2-|  
--------------------17-12-----------------5---|  
--------------------------13-12---------5-----|  
--------------------------------15-10-6-------|  
 
 
                                                                                
-----------------------------------|--------------------|--------------------|  
----------3---------------10-8-6-5-|--------------------|--15----------------|  
--3-----3-------7-9---6-9----------|--15----------------|--------------------|  
------5-----5-8-----7--------------|--------------------|--------------------|  
----5------------------------------|--------------------|--------------------|  
-----------------------------------|--------------------|--------------------|  
 
 
                                                                           
--------------------------|------------------------|--------------------|  
--13--------13------------|------------------------|--------------------|  
-----------------15---14--|--12~-------------------|--------------------|  
--------------------------|----------15----14------|--12----------------|  
--------------------------|------------------------|--------------------|  
--------------------------|------------------------|--------------------|  
 
 
                                                                              
------------------|------------------|------------------|------------------|  
------------------|------------------|------------------|------------------|  
------------------|------------------|------------------|------------------|  
------------------|------------------|------------------|------------------|  
------------------|------------------|------------------|------------------|  
------------------|------------------|------------------|------------------|  
 
 
                                                                              
------------------|------------------|------------------|------------------|  
------------------|------------------|------------------|------------------|  
------------------|------------------|------------------|------------------|  
------------------|------------------|------------------|------------------|  
------------------|------------------|------------------|------------------|  
------------------|------------------|------------------|------------------|  
 
 
                                                                              
------------------|------------------|------------------|------------------|  
------------------|------------------|------------------|------------------|  
------------------|------------------|------------------|------------------|  
------------------|------------------|------------------|------------------|  
------------------|------------------|------------------|------------------|  
------------------|------------------|------------------|------------------|  
 
 
                                                                                 
------------------|------------------|------------------|---------------------|  
------------------|------------------|------------------|---------------------|  
------------------|------------------|------------------|----------7----------|  
------------------|------------------|------------------|--------------8---7--|  
------------------|------------------|------------------|---------------------|  
------------------|------------------|------------------|---------------------|  
 
 
                                                                         
----------------------|------------------------|----------------------|  
----------------------|------------------------|--6----8--------------|  
-----------7----------|-------------5---7---8--|------------7----5----|  
--5------------8---7--|--5---7---8-------------|----------------------|  
----------------------|------------------------|----------------------|  
----------------------|------------------------|----------------------|  
 
 
                                                                              
----------------------|----------------------|-----------------------------|  
----------------------|----------------------|-----------------------------|  
-----------7----------|-----------7----------|-----------------------5--5--|  
--8------------8---7--|--5------------8---7--|--5-5-5--7-7-7--8-8-8--------|  
----------------------|----------------------|-----------------------------|  
----------------------|----------------------|-----------------------------|  
 
 
                                                                           
----------------------|------------------------|------------------------|  
----------------------|------------------------|------------------------|  
--7----8----7----5----|--7---5-----------------|---------------------5--|  
----------------------|----------8--7---8---7--|--5---7---8--7----8-----|  
----------------------|------------------------|------------------------|  
----------------------|------------------------|------------------------|  
 
 
                                                                     
------------------------|----------------------|------------------|  
------------------------|----------------------|------------------|  
--7---5------8---7---5--|--7----8----7----5----|------------------|  
----------8-------------|----------------------|------------------|  
------------------------|----------------------|------------------|  
------------------------|----------------------|------------------|  
 
 
                                                                              
------------------|------------------|------------------|------------------|  
------------------|------------------|------------------|------------------|  
------------------|------------------|------------------|------------------|  
------------------|------------------|------------------|------------------|  
------------------|------------------|------------------|------------------|  
------------------|------------------|------------------|------------------|  
 
 
                                                                              
------------------|------------------|------------------|------------------|  
------------------|------------------|------------------|------------------|  
------------------|------------------|------------------|------------------|  
------------------|------------------|------------------|------------------|  
------------------|------------------|------------------|------------------|  
------------------|------------------|------------------|------------------|  
 
 
                                                                              
------------------|------------------|------------------|------------------|  
------------------|------------------|------------------|------------------|  
------------------|------------------|------------------|------------------|  
------------------|------------------|------------------|------------------|  
------------------|------------------|------------------|------------------|  
------------------|------------------|------------------|------------------|  
 
 
                                                                              
------------------|------------------|------------------|------------------|  
------------------|------------------|------------------|------------------|  
------------------|------------------|------------------|------------------|  
------------------|------------------|------------------|------------------|  
------------------|------------------|------------------|------------------|  
------------------|------------------|------------------|------------------|  
 
 
                                                                              
------------------|------------------|------------------|------------------|  
------------------|------------------|------------------|------------------|  
------------------|------------------|------------------|------------------|  
------------------|------------------|------------------|------------------|  
------------------|------------------|------------------|------------------|  
------------------|------------------|------------------|------------------|  
 
 
                                                                        
------------------|--------------------------------------------------|  
------------------|--9h7h5---5h7h9h7h5---5h7h9h7h5---5h7h9h7h5---5h7h|  
------------------|--------4t----------4t----------4t----------4t----|  
------------------|--------------------------------------------------|  
------------------|--------------------------------------------------|  
------------------|--------------------------------------------------|  
 
 
                                                                        
--------------------------------------------------|------------------|  
--9h7h5---5h7h9h7h5---5h7h9h7h5---5h7h9h7h5---5h7-|------------------|  
--------4t----------4t----------4t----------4t----|------------------|  
--------------------------------------------------|------------------|  
--------------------------------------------------|------------------|  
--------------------------------------------------|------------------|  
 
 
                                                                        
------------------|--------------------------------------------------|  
------------------|--9h7h5---5h7h9h7h5---5h7h9h7h5---5h7h9h7h5---5h7h|  
------------------|--------4t----------4t----------4t----------4t----|  
------------------|--------------------------------------------------|  
------------------|--------------------------------------------------|  
------------------|--------------------------------------------------|  
 
 
                                                                        
--------------------------------------------------|------------------|  
--9h7h5---5h7h9h7h5---5h7h9h7h5---5h7h9h7h5---5h7-|------------------|  
--------4t----------4t----------4t----------4t----|------------------|  
--------------------------------------------------|------------------|  
--------------------------------------------------|------------------|  
--------------------------------------------------|------------------|  
 
 
                                                                              
------------------|------------------|------------------|------------------|  
------------------|------------------|------------------|------------------|  
------------------|------------------|------------------|------------------|  
------------------|------------------|------------------|------------------|  
------------------|------------------|------------------|------------------|  
------------------|------------------|------------------|------------------|  
 
 
                                                                              
------------------|------------------|------------------|------------------|  
------------------|------------------|------------------|------------------|  
------------------|------------------|------------------|------------------|  
------------------|------------------|------------------|------------------|  
------------------|------------------|------------------|------------------|  
------------------|------------------|------------------|------------------|  
 
 
                                                                        
------------------|--------------------------------------------------|  
------------------|--9h7h5---5h7h9h7h5---5h7h9h7h5---5h7h9h7h5---5h7h|  
------------------|--------4t----------4t----------4t----------4t----|  
------------------|--------------------------------------------------|  
------------------|--------------------------------------------------|  
------------------|--------------------------------------------------|  
 
 
                                                                        
--------------------------------------------------|------------------|  
--9h7h5---5h7h9h7h5---5h7h9h7h5---5h7h9h7h5---5h7-|------------------|  
--------4t----------4t----------4t----------4t----|------------------|  
--------------------------------------------------|------------------|  
--------------------------------------------------|------------------|  
--------------------------------------------------|------------------|  
 
 
                                                                        
------------------|--------------------------------------------------|  
------------------|--9h7h5---5h7h9h7h5---5h7h9h7h5---5h7h9h7h5---5h7h|  
------------------|--------4t----------4t----------4t----------4t----|  
------------------|--------------------------------------------------|  
------------------|--------------------------------------------------|  
------------------|--------------------------------------------------|  
 
 
                                                                        
--------------------------------------------------|------------------|  
--9h7h5---5h7h9h7h5---5h7h9h7h5---5h7h9h7h5---5h7-|------------------|  
--------4t----------4t----------4t----------4t----|------------------|  
--------------------------------------------------|------------------|  
--------------------------------------------------|------------------|  
--------------------------------------------------|------------------|  
             
 
_______________________________________________________ 
Contribuição: Celso Alves([email protected]) 

    	
fixar
fixar inscrever-se

enviado porenviado por: anônimo
cifra enviadaCorrigida por: sem correções
logo top cifrasComente
ico música do artistaMúsicas deste artista
ico curtiuCurtiu?
ico destaqueDestaque
Petaxxon Comunicação Online

Cifras.com.br - Melhor e mais completo site de cifras e tablaturas do Brasil Mais de 1 milhão de acordes de músicas cadastradas desde 2003
As informações contidas no nosso site são colaborações de seus usuários e podem conter erros, sendo assim, não nos responsabilizamos sobre nenhuma destas.

close
menos
mais
close
Cor dos acordes:

Cor da letra:

close
Alinhar acordes a direita Alinhar acordes a esquerda Alinhar acordes em baixo Alinhar acordes no topo
close
  Mostrar todos os acordes Esconder acordes muito fáceis Esconder acordes fáceis Esconder acordes intermediários
redimensionar
glossário