Cifras e Tablaturas
Nine Inch Nails

Nine Inch Nails

Branches-bones

Cifras Cancelar Versão de Impressão
cifras

Nine Inch Nails - Branches-bones

fixar na tela  
Exibindo: vídeo-aula ver clipes redimensionar

Tom:

  
Intro 


Verse 

Rest twelve measures, then... 

e|----------------|----------------|----------------|----------------| 
B|----------------|----------------|----------------|----------------| 
G|----------------|----------------|----------------|----------------| 
D|4b--------------|----------------|----------------|----------------| X2 
A|--------------4b|----------------|----------------|----------------| 
E|----------------|--------------5b|--------------7b|----------------| 

e|8b10------------|----------------| 
B|----------------|----------------| 
G|----------------|----------------| 
D|----------------|--x-x---x-x---x-| 
A|----------------|--x-x---x-x---x-| 
E|----------------|--x-x---x-x---x-| 


Chorus 

e|----------------|----------------|----------------|----------------| 
B|----------------|----------------|----------------|----------------| 
G|----------------|----------------|----------------|----------------| 
D|7-7-7-7-7-7-7-9-|--7-9---7-9---7-|7-7-7-7-7-7-7-9-|--7-9---7-9---7-| X2 
A|7-7-7-7-7-7-7-9-|--7-9---7-9---7-|7-7-7-7-7-7-7-9-|--7-9---7-9---7-| 
E|5-5-5-5-5-5-5-7-|--5-7---5-7---5-|5-5-5-5-5-5-5-7-|--5-7---5-7---5-| 


Verse 

Rest eight measures, then... 

e|----------------|----------------|----------------|----------------| 
B|----------------|----------------|----------------|----------------| 
G|----------------|----------------|----------------|----------------| 
D|4b--------------|----------------|----------------|----------------| X2 
A|--------------4b|----------------|----------------|----------------| 
E|----------------|--------------5b|--------------7b|----------------| 


Chorus 

e|----------------|----------------|----------------|----------------| 
B|----------------|----------------|----------------|----------------| 
G|----------------|----------------|----------------|----------------| 
D|7-7-7-7-7-7-7-9-|--7-9---7-9---7-|7-7-7-7-7-7-7-9-|--7-9---7-9---7-| X4 
A|7-7-7-7-7-7-7-9-|--7-9---7-9---7-|7-7-7-7-7-7-7-9-|--7-9---7-9---7-| 
E|5-5-5-5-5-5-5-7-|--5-7---5-7---5-|5-5-5-5-5-5-5-7-|--5-7---5-7---5-| 



*********************************** 
| b   Bend 
| x   Dead note 
*********************************** 
  

top 5 | nine inch nails
top rock'n roll
Outras músicas do artista letras do(a) Nine Inch Nails
1.
Hurt
Top cifras »Top artistas »
Petaxxon Comunicação Online
Cifras.com.br - Melhor e mais completo site de cifras e tablaturas do Brasil
Mais de 1 milhão de acordes de músicas cadastradas desde 2003
As informações contidas no nosso site são colaborações de seus usuários e podem conter erros, sendo assim, não nos responsabilizamos sobre nenhuma destas.
close
menos
mais
close
Cor dos acordes:

Cor da letra:

 

save
close
close
 
redimensionar