Cifras e Tablaturas
Nívea Soares

Nívea Soares

Cada dia mais e mais

Ano: 2005
Album : Enche-me de Ti

Cifras Cancelar Versão de Impressão

Nívea Soares - Cada dia mais e mais

Tom:

  			Introdução 
 
e|---------------------------------12-12-13-10----12-12-13-10---|  
B|--------------------------------------------------------------| 
G|----------------------------------9--9-10-7-----9--9-10-7-----| 
D|--------------------------------------------------------------|  
A|-5-3-5--5-3-5----3-1-3--3-1-3---------------------------------|  
E|-5-3-5--5-3-5----3-1-3--3-1-3---------------------------------| 
 
e|-8-8-10-6--8-------------------------------------------------|  
B|--------------------------------------------------------------| 
G|-5-5-7--3--5-------------------------------------------------| 
D|--------------------------------------------------------------|  
A|--------------------------------------------------------------|  
E|--------------------------------------------------------------| 
 
(00:31) 
 
e|-10-8---------------------------------------------------------|  
B|------8/10-6-8-10-8-6-----------------------------------------| 
G|-7--5---------------------------------------------------------| 
D|------5/7--3-5-7--5-3-----------------------------------------|  
A|--------------------------------------------------------------|  
E|--------------------------------------------------------------| 
 
e durante a musica repete algumas vezes 

    	
fixar
fixar inscrever-se

enviado porenviado por: ricardogtr
cifra enviadaCorrigida por: sem correções
logo top cifrasComente
ico música do artistaMúsicas deste artista
ico curtiuCurtiu?
ico destaqueDestaque
Petaxxon Comunicação Online

Cifras.com.br - Melhor e mais completo site de cifras e tablaturas do Brasil Mais de 1 milhão de acordes de músicas cadastradas desde 2003
As informações contidas no nosso site são colaborações de seus usuários e podem conter erros, sendo assim, não nos responsabilizamos sobre nenhuma destas.

close
menos
mais
close
Cor dos acordes:

Cor da letra:

close
Alinhar acordes a direita Alinhar acordes a esquerda Alinhar acordes em baixo Alinhar acordes no topo
close
  Mostrar todos os acordes Esconder acordes muito fáceis Esconder acordes fáceis Esconder acordes intermediários
redimensionar
glossário