Cifras e Tablaturas
Nívea Soares

Nívea Soares

Centro da Tua Vontade

Ano: 2005
Album : Enche-me de Ti

Cifras Cancelar Versão de Impressão

Nívea Soares - Centro da Tua Vontade

Tom:

  			e|--2/4-2-0-2------------2/4-2-0-2--4-5---5-4-2-0---| 
B|--3/5-3-3-3---5---0h2--3/5-3-3-3--5-5-------------|  
G|--------------4---2-------------------------------|  
D|--------------2---2---------------------0-0-0-0---|  
A|------------------0-------------------------------|  
E|--------------4-----------------------------------| 
 
e|----------------------2---3---5h------------------| 
B|--3----5---2--0h2h0---2---3---5h------------------|  
G|----2--4---2----------2---0---5h------------------|  
D|-------2---2----------4---0-----------------------|  
A|-----------0----------4---2-----------------------|  
E|-------4--------------2---3-----------------------|   

    	
fixar
fixar inscrever-se

enviado porenviado por: ricardogtr
cifra enviadaCorrigida por: sem correções
logo top cifrasComente
ico música do artistaMúsicas deste artista
ico curtiuCurtiu?
ico destaqueDestaque
Petaxxon Comunicação Online

Cifras.com.br - Melhor e mais completo site de cifras e tablaturas do Brasil Mais de 1 milhão de acordes de músicas cadastradas desde 2003
As informações contidas no nosso site são colaborações de seus usuários e podem conter erros, sendo assim, não nos responsabilizamos sobre nenhuma destas.

close
menos
mais
close
Cor dos acordes:

Cor da letra:

close
Alinhar acordes a direita Alinhar acordes a esquerda Alinhar acordes em baixo Alinhar acordes no topo
close
  Mostrar todos os acordes Esconder acordes muito fáceis Esconder acordes fáceis Esconder acordes intermediários
redimensionar
glossário